Guitar Resources


Blackbird (original) (By BEATLES)
 
The Beatles
Blackbird [Lennon/McCartney]
The Beatles <White Album> (1967)

Intro:

E|-----------------|--------------------------------------------------||
B|-0--0---1--0--3/-|-/12------12--12--12--12---12------12--12--12--12-||
G|-0------0-----0--|---0---0---0---0---0---0----0---0---0---0---0---0-||
D|-----------------|--------------------------------------------------||
A|--------0-----2/-|-/10--10--10--10--10--10---10--10--10--10--10--10-||
E|-3---------------|--------------------------------------------------||


Verse:

E|-----------------|--------------------------------------------------|-----0---3---------------5-----|
B|-0--0---1--0--3/-|-/12------12--12--12--12---12------12--12--12--12-|-5---------------7-------------|
G|-0------0-----0--|---0---0---0---0---0---0----0---0---0---0---0---0-|-------------0-------0-------0-|
D|-----------------|--------------------------------------------------|-------------------------------|
A|--------0-----2/-|-/10--10--10--10--10--10---10--10--10--10--10--10-|-3-------4-------5-------6-----|
E|-3---------------|--------------------------------------------------|-------------------------------|

E|-----------------------------------------------|---------3-----------------------------|-----------------------|
B|-8-------8-----------8---8-------8-----------8-|-7---------------5-------5-----------5-|-4-------4-----------4-|
G|-----0-----------0-----------0-----------0-----|-----0-------0-------0-----------------|-----0-----------------|
D|-----------------------------------------------|---------------------------------5-----|-----------------5-----|
A|-7-----------7-----------6-----------6---------|-5-------4-------3-----------3---------|-3-----------3---------|
E|-----------------------------------------------|---------------------------------------|-----------------------|

E|-----------------------------------------------|-----------------------------------------------|
B|-3-------3-----------3---2-------2-----------2-|-1-------1-----------1---0-------0-------------|
G|-----0-----------0-----------0-----------0-----|-----0-----------0-------0---0---------------0-|
D|-----------------------------------------------|-0-----------0---------------------------5-----|
A|-2-----------2-----------0-----------0---------|-----------------------------------------------|
E|-----------------------------------------------|-------------------------3-----------3---------|

E|-----------------------------------------------|-----------------------------------------------|
B|-5-------3-------2-------2-------2-----------2-|-1-------1-----------1---0-------0-----------0-|
G|-----0-------0-------0-------0-----------0-----|-----0-----------0-------0---0-----------5-----|
D|-----------------------------------------------|-0-----------0---------------------------------|
A|-3-------2-------0-------------------0---------|-----------------------------------------------|
E|-----------------------------------------------|-------------------------3-----------3---------|

E|-----------------|--------------------------------------------------|-----0---3---------------5-----|
B|-0--0---1--0--3/-|-/12------12--12--12--12---12------12--12--12--12-|-5---------------7-------------|
G|-0------0-----0--|---0---0---0---0---0---0----0---0---0---0---0---0-|-------------0-------0-------0-|
D|-----------------|--------------------------------------------------|-------------------------------|
A|--------0-----2/-|-/10--10--10--10--10--10---10--10--10--10--10--10-|-3-------4-------5-------6-----|
E|-3---------------|--------------------------------------------------|-------------------------------|

E|-----------------------------------------------|---------3-----------------------------|-----------------------|
B|-8-------8-----------8---8-------8-----------8-|-7---------------5-------5-----------5-|-4-------4-----------4-|
G|-----0-----------0-----------0-----------0-----|-----0-------0-------0-----------------|-----0-----------------|
D|-----------------------------------------------|---------------------------------5-----|-----------------5-----|
A|-7-----------7-----------6-----------6---------|-5-------4-------3-----------3---------|-3-----------3---------|
E|-----------------------------------------------|---------------------------------------|-----------------------|

E|-----------------------------------------------|---------------------------------------||
B|-3-------3-----------3---2-------2-----------2-|-1---------------1---0-------0-------0-||
G|-----0-----------0-----------0-----------0-----|-----0-------0-------0---------------0-||
D|-----------------------------------------------|-0-------0-----------------------------||
A|-2-----------2-----------0-----------0---------|---------------------------------------||
E|-----------------------------------------------|---------------------3---3-------3-----||

Chorus:

E|--------------------------------|-----------------------------------------------|
B|-10-------8-------6-------5-----|-3-------3-----------3---5-------5-----------0-|
G|------0-------0-------0-------0-|-----0-----------0-----------0-----------------|
D|--------------------------------|-----------------------------------------5-----|
A|-8--------7-------5-------3-----|-1-----------1-----------3-----------3---------|
E|--------------------------------|-----------------------------------------------|

E|--------------------------------|-----------------------------------------------|-------------------||
B|-10-------8-------6-------5-----|-3-------3-----------3---2-------2-----------2-|-1-----------1-----||
G|------0-------0-------0-------0-|-----0-----------0-----------0-----------0-----|-----0-----------0-||
D|--------------------------------|-----------------------------------------------|-0-------0---------||
A|-8--------7-------5-------3-----|-1-----------1-----------0-----------0---------|-------------------||
E|--------------------------------|-----------------------------------------------|-------------------||

Interlude:

E|-----------------|--------------------------------------------------|-----0---3---------------5-----|
B|-0--0---1--0--3/-|-/12------12--12--12--12---12------12--12--12--12-|-5---------------7-------------|
G|-0------0-----0--|---0---0---0---0---0---0----0---0---0---0---0---0-|-------------0-------0-------0-|
D|-----------------|--------------------------------------------------|-------------------------------|
A|--------0-----2/-|-/10--10--10--10--10--10---10--10--10--10--10--10-|-3-------4-------5-------6-----|
E|-3---------------|--------------------------------------------------|-------------------------------|

E|-----------------------------------------------|---------3-----------------------------|-----------------------|
B|-8-------8-----------8---8-------8-----------8-|-7---------------5-------5-----------5-|-4-------4-----------4-|
G|-----0-----------0-----------0-----------0-----|-----0-------0-------0-----------------|-----0-----------------|
D|-----------------------------------------------|---------------------------------5-----|-----------------5-----|
A|-7-----------7-----------6-----------6---------|-5-------4-------3-----------3---------|-3-----------3---------|
E|-----------------------------------------------|---------------------------------------|-----------------------|

E|-----------------------------------------------|-----------------------------------------------||
B|-3-------3-----------3---2-------2-----------2-|-1-------1-----------1---0-------0-------------||
G|-----0-----------0-----------0-----------0-----|-----0-----------0-------0---0---------------0-||
D|-----------------------------------------------|-0-----------0---------------------------5-----||
A|-2-----------2-----------0-----------0---------|-----------------------------------------------||
E|-----------------------------------------------|-------------------------3-----------3---------||

Chorus:

E|--------------------------------|-----------------------------------------------|
B|-10-------8-------6-------5-----|-3-------3-----------3---5-------5-----------0-|
G|------0-------0-------0-------0-|-----0-----------0-----------0-----------------|
D|--------------------------------|-----------------------------------------5-----|
A|-8--------7-------5-------3-----|-1-----------1-----------3-----------3---------|
E|--------------------------------|-----------------------------------------------|

E|--------------------------------|-----------------------------------------------|-------------------||
B|-10-------8-------6-------5-----|-3-------3-----------3---2-------2-----------2-|-1-----------1-----||
G|------0-------0-------0-------0-|-----0-----------0-----------0-----------0-----|-----0-----------0-||
D|--------------------------------|-----------------------------------------------|-0-------0---------||
A|-8--------7-------5-------3-----|-1-----------1-----------0-----------0---------|-------------------||
E|--------------------------------|-----------------------------------------------|-------------------||

E|-----------------|----------------------------------------------|----------------------------------------------------|
B|-0--0---1--0--3/-|-/12------12--12--12--12---12------12--12--12-|-12------12--12--12--12--12------12--12--12---------|
G|-0------0-----0--|---0---0---0---0---0---0----0---0---0---0---0-|--0---0---0---0---0---0---0---0---0---0-------0---0-|
D|-----------------|----------------------------------------------|----------------------------------------------------|
A|--------0-----2/-|-/10--10--10--10--10--10---10--10--10--10--10-|-10--10--10--10--10--10--10--10--10--10------10--10-|
E|-3---------------|----------------------------------------------|----------------------------------------------------|

E|----------------------------|-----------------|--------------------------------|---------------------------------------||
B|-12------12------12--12--12-|-------------12/-|-/0---0---1---0---3-------5-----|-3-------2-------1-------1-----------1-||
G|--0---0---0---0---0---0---0-|-----------------|--0---0---------------0-------0-|-----0-------0-------0-----------0-----||
D|----------------------------|-----------------|--------------------------------|-----------------0-----------0---------||
A|-10------10------10------10-|-------------10/-|----------0-------2-------3-----|-2-------0-----------------------------||
E|----------------------------|-----------------|--3-----------------------------|---------------------------------------||

Verse:
E|-----------------|--------------------------------------------------|-----0---3---------------5-----|
B|-0--0---1--0--3/-|-/12------12--12--12--12---12------12--12--12--12-|-5---------------7-------------|
G|-0------0-----0--|---0---0---0---0---0---0----0---0---0---0---0---0-|-------------0-------0-------0-|
D|-----------------|--------------------------------------------------|-------------------------------|
A|--------0-----2/-|-/10--10--10--10--10--10---10--10--10--10--10--10-|-3-------4-------5-------6-----|
E|-3---------------|--------------------------------------------------|-------------------------------|

E|-----------------------------------------------|---------3-----------------------------|-----------------------|
B|-8-------8-----------8---8-------8-----------8-|-7---------------5-------5-----------5-|-4-------4-----------4-|
G|-----0-----------0-----------0-----------0-----|-----0-------0-------0-----------------|-----0-----------------|
D|-----------------------------------------------|---------------------------------5-----|-----------------5-----|
A|-7-----------7-----------6-----------6---------|-5-------4-------3-----------3---------|-3-----------3---------|
E|-----------------------------------------------|---------------------------------------|-----------------------|

E|-----------------------------------------------|-----------------------------------------------|
B|-3-------3-----------3---2-------2-----------2-|-1-------1-----------1---0-------0-------------|
G|-----0-----------0-----------0-----------0-----|-----0-----------0-------0---0---------------0-|
D|-----------------------------------------------|-0-----------0---------------------------5-----|
A|-2-----------2-----------0-----------0---------|-----------------------------------------------|
E|-----------------------------------------------|-------------------------3-----------3---------|

E|-----------------------------------------------|-----------------------------------------------|
B|-5-------3-------2-------2-------2-----------2-|-1-------1-----------1---0-------0-----------0-|
G|-----0-------0-------0-------0-----------0-----|-----0-----------0-------0---0-----------5-----|
D|-----------------------------------------------|-0-----------0---------------------------------|
A|-3-------2-------0-------------------0---------|-----------------------------------------------|
E|-----------------------------------------------|-------------------------3-----------3---------|

E|-----------------------------------------------|-----------------------------------------------|
B|-5-------3-------2-------2-------2-----------2-|-1-------1-----------1---0-------0-----------0-|
G|-----0-------0-------0-------0-----------0-----|-----0-----------0-----------0-----------0-----|
D|-----------------------------------------------|-0-----------0---------------------------------|
A|-3-------2-------0-------------------0---------|-----------------------------------------------|
E|-----------------------------------------------|-------------------------3-----------3---------|

E|-----------------------------------------------|-----------------------------3-||
B|-5-------3-------2-------2-------2-----------2-|-1-------1-----------1---0---0-||
G|-----0-------0-------0-------0-----------0-----|-----0-----------0-------0-----||
D|-----------------------------------------------|-0-----------0---------------0-||
A|-3-------2-------0-------------------0---------|-------------------------------||
E|-----------------------------------------------|-------------------------3-----||
Guitar Tabs FROM THE TOP 60 ARTISTS
1.  AC/DC Guitar Tabs
2.  AEROSMITH Guitar Tabs
3.  ALANIS MORISSETTE Guitar Tabs
4.  BEATLES Guitar Tabs
5.  BLINK 182 Guitar Tabs
6.  BOB DYLAN Guitar Tabs
7.  BOB MARLEY Guitar Tabs
8.  BUSH Guitar Tabs
9.  COLDPLAY Guitar Tabs
10.  DAVE MATTHEWS Guitar Tabs
11.  ERIC CLAPTON Guitar Tabs
12.  GRATEFUL Dead Guitar Tabs
13.  GREEN DAY Guitar Tabs
14.  IRON MAIDEN Guitar Tabs
15.  JACK JOHNSON Guitar Tabs
16.  JIMI HENDRIX Guitar Tabs
17.  JOHN MAYER Guitar Tabs
18.  JOHNNY CASH Guitar Tabs
19.  LED ZEPPELIN Guitar Tabs
20.  LIMP BIZKIT Guitar Tabs
21.  METALLICA Guitar Tabs
22.  NEIL YOUNG Guitar Tabs
23.  NIRVANA Guitar Tabs
24.  PEARL JAM Guitar Tabs
25.  PINK FLOYD Guitar Tabs
26.  RADIOHEAD Guitar Tabs
27  RED HOT CHILI PEPPERS Guitar Tabs
28  ROLLING STONES Guitar Tabs
29  STONE TEMPLE PILOTS Guitar Tabs
30  U2 Guitar Tabs
31.  VAN HALEN Guitar Tabs
32.  WEEZER Guitar Tabs