Guitar Resources


Day Tripper 2 (By BEATLES)
 
                                   DAY TRIPPER
                  As recorded by John Lennon And Paul McCartney


  Q=132
 4/4
  Gtr II
|---------------|--------------------|---------------|----------------0----|
|---------------|--------------------|---------------|----------------0----|
|---------------|--------------------|---------------|----------------1----|
|---------------|--------------------|---------------|----------------2----|
|---------------|--------------------|---------------|----------------2----|
|---------------|--------------------|---------------|----------------0----|
|
| Gtr I
|---------------|--------------------|---------------|---------------------|
|---------------|--------------------|---------------|---------------------|
|---------------|--------------------|---------------|---------------------|
|-----------2-0-|-(0)----4-(4)---0-2-|-----------2-0-|-(0)----4-(4)---0-2--|
|---------2-----|------2-------2-----|---------2-----|------2-------2------|
|-0---3-4-------|--------------------|-0---3-4-------|---------------------|


|-0--0---0-0---0-|--0--0-0----0----0---|-0--0---0-0---0-|--0--0-0----0----0---|
|-0--0---0-3---2-|--0--0-0----3----2---|-0--0---0-3---2-|--0--0-0----3----2---|
|-1--1---1-1---1-|--1--1-1----1----1---|-1--1---1-1---1-|--1--1-1----1----1---|
|-2--2---2-2---2-|--2--2-2----2----2---|-2--2---2-2---2-|--2--2-2----2----2---|
|-2--2---2-2---2-|--2--2-2----2----2---|-2--2---2-2---2-|--2--2-2----2----2---|
|-0--0---0-0---0-|--0--0-0----0----0---|-0--0---0-0---0-|--0--0-0----0----0---|
|
|----------------|---------------------|----------------|---------------------|
|----------------|---------------------|----------------|---------------------|
|----------------|---------------------|----------------|---------------------|
|------------2-0-|-(0)-----4-(4)---0-2-|------------2-0-|-(0)-----4-(4)---0-2-|
|----------2-----|-------2-------2-----|----------2-----|-------2-------2-----|
|-0----3-4-------|---------------------|-0----3-4-------|---------------------|


  Gtr III
|----------------|---------------------|
|----------------|---------------------|
|----------------|---------------------|
|----------------|---------------------|
|----------------|---------------------|
|----------------|---------------------|
|
| Gtr II
|-0--0---0-0---0-|--0--0-0----0----0---|
|-0--0---0-3---2-|--0--0-0----3----2---|
|-1--1---1-1---1-|--1--1-1----1----1---|
|-2--2---2-2---2-|--2--2-2----2----2---|
|-2--2---2-2---2-|--2--2-2----2----2---|
|-0--0---0-0---0-|--0--0-0----0----0---|
|
| Gtr I
|----------------|---------------------|
|----------------|---------------------|
|----------------|---------------------|
|------------2-0-|-(0)-----4-(4)---0-2-|
|----------2-----|-------2-------2-----|
|-0----3-4-------|---------------------|


|-5-4-2-0-(0)-0-----|-------------------0-|
|-------------------|---------------------|
|-------------------|---------------------|
|-------------------|---------------------|
|-------------------|---------------------|
|-------------------|---------------------|
|
|-0---0----0--0---0-|--0--0-0----0----0---|
|-0---0----0--3---2-|--0--0-0----3----2---|
|-1---1----1--1---1-|--1--1-1----1----1---|
|-2---2----2--2---2-|--2--2-2----2----2---|
|-2---2----2--2---2-|--2--2-2----2----2---|
|-0---0----0--0---0-|--0--0-0----0----0---|
|
|-------------------|---------------------|
|-------------------|---------------------|
|-------------------|---------------------|
|---------------2-0-|-(0)-----4-(4)---0-2-|
|-------------2-----|-------2-------2-----|
|-0-----3--4--------|---------------------|


|-5-4-2-0-(0)-------|---------------------|
|-7-5-4-0-(0)-------|---------------------|
|-------------1-1-1-|-(1)-----------------|
|-------------2-2-2-|-(2)-----------------|
|-------------------|---------------------|
|-------------------|---------------------|
|
|-0---0----0--0---0-|--0--0-0----0----0---|
|-0---0----0--3---2-|--0--0-0----3----2---|
|-1---1----1--1---1-|--1--1-1----1----1---|
|-2---2----2--2---2-|--2--2-2----2----2---|
|-2---2----2--2---2-|--2--2-2----2----2---|
|-0---0----0--0---0-|--0--0-0----0----0---|
|
|-------------------|---------------------|
|-------------------|---------------------|
|-------------------|---------------------|
|---------------2-0-|-(0)-----4-(4)---0-2-|
|-------------2-----|-------2-------2-----|
|-0-----3--4--------|---------------------|


|-5-4-2-0-(0)-------|------------------0-|
|-------------------|--------------------|
|-------------2-----|--------------------|
|-------------------|--------------------|
|-------------------|--------------------|
|-------------------|--------------------|
|
|-0---0----0--0---0-|--0---0----0--0---0-|
|-2---2----2--2---2-|--2---2----2--2---2-|
|-0---0----0--0---0-|--0---0----0--0---0-|
|-2---2----2--2---2-|--2---2----2--2---2-|
|-0---0----0--0---0-|--0---0----0--0---0-|
|-------------------|--------------------|
|
|-------------------|--------------------|
|-------------------|--------------------|
|---------------2-0-|-(0)----4-(4)---0-2-|
|-------------2-----|------2-------2-----|
|-0-----3--4--------|--------------------|
|-------------------|--------------------|


|-5-4-2-0-(0)-------|---------------------|
|-7-5-4-0-(0)-------|---------------0-4-0-|
|-------------1-1-1-|-(1)-1---------------|
|-------------2-2-2-|-(2)-2---------------|
|-------------------|---------------------|
|-------------------|---------------------|
|
|-0---0----0--0---0-|-(0)-0-0-0--0--0-0-0-|
|-0---0----0--3---2-|-(2)-0-0-0--2--2-2-2-|
|-1---1----1--1---1-|-(1)-1-1-1--1--1-1-1-|
|-2---2----2--2---2-|-(2)-2-2-2--2--2-2-2-|
|-2---2----2--2---2-|-(2)-2-2-2--2--2-2-2-|
|-0---0----0--0---0-|-(0)-0-0-0--0--0-0-0-|
|
|-------------------|---------------------|
|-------------------|---------------------|
|-------------------|---------------------|
|---------------2-0-|-(0)-----4-(4)---0-2-|
|-------------2-----|-------2-------2-----|
|-0-----3--4--------|---------------------|


|--5-------(5)--0--2---|--0--2----------------|
|-14------(14)--9-10---|--9-10----------------|
|-11------(11)-16-18---|-16-18----------------|
|----------------------|----------------------|
|----------------------|----------------------|
|----------------------|----------------------|
|
|--2--2-----2---2--2-2-|--2----2---2---2-2-2--|
|--5--5-----5---5--5-5-|--5----5---5---5-5-5--|
|--3--3-----3---3--3-3-|--3----3---3---3-3-3--|
|--2--2-----2---2--2-2-|--2----2---2---2-2-2--|
|--4--4-----4---4--4-4-|--4----4---4---4-4-4--|
|--2--2-----2---2--2-2-|--2----2---2---2-2-2--|
|
|----------------------|----------------------|
|----------------------|----------------------|
|----------------------|----------------------|
|----------------------|----------------------|
|----------------------|---------------2------|
|--2--2-2---2------2-2-|--2----2-2-0-2---2-2--|


|--4--2----0--(0)--2----0-|--(0)----------0---|
|-12-10----9--(9)-10----2-|--(2)--------2---2-|
|-20-18---16-(16)-18---13-|-(13)--------------|
|-------------------------|-------------------|
|-------------------------|-------------------|
|-------------------------|-------------------|
|
|--2----2------2---2-2--2-|---2---2---2-2-2-2-|
|--5----5------5---5-5--5-|---5---5---5-5-5-5-|
|--3----3------3---3-3--3-|---3---3---3-3-3-3-|
|--2----2------2---2-2--2-|---2---2---2-2-2-2-|
|--4----4------4---4-4--4-|---4---4---4-4-4-4-|
|--2----2------2---2-2--2-|---2---2---2-2-2-2-|
|
|-------------------------|-------------------|
|-------------------------|-------------------|
|-------------------------|-------------------|
|-------------------------|-------------------|
|-------------------------|-------------------|
|--2----2--2-------2----0-|---0h2-2-2-2-2-2-2-|


|--4-2-----(2)-0-2---|-5----------1-0-|
|-10-----------------|-4----------2-2-|
|--------------------|----------1-----|
|--------------------|----------------|
|--------------------|----------------|
|--------------------|----------------|
|
|--2---2----2--2-2-2-|-4--4---4-4-4-4-|
|--5---5----5--5-5-5-|-7--7---7-7-7-7-|
|--3---3----3--3-3-3-|-5--5---5-5-5-5-|
|--2---2----2--2-2-2-|-4--4---4-4-4-4-|
|--4---4----4--4-4-4-|-6--6---6-6-6-6-|
|--2---2----2--2-2-2-|-4--4---4-4-4-4-|
|
|--------------------|----------------|
|--------------------|----------------|
|--------------------|----------------|
|--------------------|----------------|
|--------------------|--------6---6---|
|--5---5-5-----5---5-|-4--4-4---------|


|-(0)-------1-1-(1)-1---|--------------|---------------|--------------------|
|-(2)-------2-2-(2)-2---|-0------------|---------------|--------------------|
|-----------------------|-8------------|---------------|--------------------|
|-----------------------|--------------|---------------|--------------------|
|-----------------------|--------------|---------------|--------------------|
|-----------------------|--------------|---------------|--------------------|
|
|--4---4--4------4------|-2--2--2---2--|-0-------------|--------------------|
|--6---6--6------6------|-4--4--4---4--|-0-------------|--------------------|
|--4---4--4------4------|-2--2--2---2--|-1-------------|--------------------|
|--6---6--6------6------|-4--4--4---4--|-2-------------|--------------------|
|--4---4--4------4------|-2--2--2---2--|-2-------------|--------------------|
|-----------------------|--------------|-0-------------|--------------------|
|
|-----------------------|--------------|---------------|--------------------|
|-----------------------|--------------|---------------|--------------------|
|-----------------------|---------4----|---------------|--------------------|
|-----------------------|----4----4-4--|-----------2-0-|-(0)----4-(4)---0-2-|
|--4---4--4------4----4-|-2--2--2-2----|---------2-----|------2-------2-----|
|-----------------------|--------------|-0---3-4-------|--------------------|


|----------------|---------------------|
|----------------|---------------------|
|----------------|---------------------|
|----------------|---------------------|
|----------------|---------------------|
|----------------|---------------------|
|
|-0--0---0-0---0-|--0--0-0----0----0---|
|-0--0---0-3---2-|--0--0-0----3----2---|
|-1--1---1-1---1-|--1--1-1----1----1---|
|-2--2---2-2---2-|--2--2-2----2----2---|
|-2--2---2-2---2-|--2--2-2----2----2---|
|-0--0---0-0---0-|--0--0-0----0----0---|
|
|----------------|---------------------|
|----------------|---------------------|
|----------------|---------------------|
|------------2-0-|-(0)-----4-(4)---0-2-|
|----------2-----|-------2-------2-----|
|-0----3-4-------|---------------------|


|-5-4-2-0-(0)-0-----|---------------------|
|-------------------|---------------------|
|-------------------|---------------------|
|-------------------|---------------------|
|-------------------|---------------------|
|-------------------|---------------------|
|
|-0---0----0--0---0-|--0--0-0----0----0---|
|-0---0----0--3---2-|--0--0-0----3----2---|
|-1---1----1--1---1-|--1--1-1----1----1---|
|-2---2----2--2---2-|--2--2-2----2----2---|
|-2---2----2--2---2-|--2--2-2----2----2---|
|-0---0----0--0---0-|--0--0-0----0----0---|
|
|-------------------|---------------------|
|-------------------|---------------------|
|-------------------|---------------------|
|---------------2-0-|-(0)-----4-(4)---0-2-|
|-------------2-----|-------2-------2-----|
|-0-----3--4--------|---------------------|


|-5-4-2-0-(0)-------|---------------------|
|-7-5-4-0-(0)-------|---------------------|
|-------------1-1-1-|-(1)-----------------|
|-------------2-2-2-|-(2)-----------------|
|-------------------|---------------------|
|-------------------|---------------------|
|
|-0---0----0--0---0-|--0--0-0----0----0---|
|-0---0----0--3---2-|--0--0-0----3----2---|
|-1---1----1--1---1-|--1--1-1----1----1---|
|-2---2----2--2---2-|--2--2-2----2----2---|
|-2---2----2--2---2-|--2--2-2----2----2---|
|-0---0----0--0---0-|--0--0-0----0----0---|
|
|-------------------|---------------------|
|-------------------|---------------------|
|-------------------|---------------------|
|---------------2-0-|-(0)-----4-(4)---0-2-|
|-------------2-----|-------2-------2-----|
|-0-----3--4--------|---------------------|


|-5-4-2-0-(0)-------|--------------------|
|-------------------|--------------------|
|-------------2-----|--------------------|
|-------------------|--------------------|
|-------------------|--------------------|
|-------------------|--------------------|
|
|-0---0----0--0---0-|--0---0----0--0---0-|
|-2---2----2--2---2-|--2---2----2--2---2-|
|-0---0----0--0---0-|--0---0----0--0---0-|
|-2---2----2--2---2-|--2---2----2--2---2-|
|-0---0----0--0---0-|--0---0----0--0---0-|
|-------------------|--------------------|
|
|-------------------|--------------------|
|-------------------|--------------------|
|---------------2-0-|-(0)----4-(4)---0-2-|
|-------------2-----|------2-------2-----|
|-0-----3--4--------|--------------------|
|-------------------|--------------------|


|-5-4-2-0-(0)-------|---------------------|
|-7-5-4-0-(0)-------|---------------0-4-0-|
|-------------1-1-1-|-(1)-1---------------|
|-------------2-2-2-|-(2)-2---------------|
|-------------------|---------------------|
|-------------------|---------------------|
|
|-0---0----0--0---0-|-(0)-0-0-0--0--0-0-0-|
|-0---0----0--3---2-|-(2)-0-0-0--2--2-2-2-|
|-1---1----1--1---1-|-(1)-1-1-1--1--1-1-1-|
|-2---2----2--2---2-|-(2)-2-2-2--2--2-2-2-|
|-2---2----2--2---2-|-(2)-2-2-2--2--2-2-2-|
|-0---0----0--0---0-|-(0)-0-0-0--0--0-0-0-|
|
|-------------------|---------------------|
|-------------------|---------------------|
|-------------------|---------------------|
|---------------2-0-|-(0)-----4-(4)---0-2-|
|-------------2-----|-------2-------2-----|
|-0-----3--4--------|---------------------|


|--5-------(5)--0--2---|--0--2----------------|
|-14------(14)--9-10---|--9-10----------------|
|-11------(11)-16-18---|-16-18----------------|
|----------------------|----------------------|
|----------------------|----------------------|
|----------------------|----------------------|
|
|--2--2-----2---2--2-2-|--2----2---2---2-2-2--|
|--5--5-----5---5--5-5-|--5----5---5---5-5-5--|
|--3--3-----3---3--3-3-|--3----3---3---3-3-3--|
|--2--2-----2---2--2-2-|--2----2---2---2-2-2--|
|--4--4-----4---4--4-4-|--4----4---4---4-4-4--|
|--2--2-----2---2--2-2-|--2----2---2---2-2-2--|
|
|----------------------|----------------------|
|----------------------|----------------------|
|----------------------|----------------------|
|----------------------|----------------------|
|----------------------|---------------2------|
|--2--2-2---2------2-2-|--2----2-2-0-2---2-2--|


|--4--2----0--(0)--2----0-|--(0)----------0---|
|-12-10----9--(9)-10----2-|--(2)--------2---2-|
|-20-18---16-(16)-18---13-|-(13)--------------|
|-------------------------|-------------------|
|-------------------------|-------------------|
|-------------------------|-------------------|
|
|--2----2------2---2-2--2-|---2---2---2-2-2-2-|
|--5----5------5---5-5--5-|---5---5---5-5-5-5-|
|--3----3------3---3-3--3-|---3---3---3-3-3-3-|
|--2----2------2---2-2--2-|---2---2---2-2-2-2-|
|--4----4------4---4-4--4-|---4---4---4-4-4-4-|
|--2----2------2---2-2--2-|---2---2---2-2-2-2-|
|
|-------------------------|-------------------|
|-------------------------|-------------------|
|-------------------------|-------------------|
|-------------------------|-------------------|
|-------------------------|-------------------|
|--2----2--2-------2----0-|---0h2-2-2-2-2-2-2-|


|--4-2-----(2)-0-2---|-5----------1-0-|
|-10-----------------|-4----------2-2-|
|--------------------|----------1-----|
|--------------------|----------------|
|--------------------|----------------|
|--------------------|----------------|
|
|--2---2----2--2-2-2-|-4--4---4-4-4-4-|
|--5---5----5--5-5-5-|-7--7---7-7-7-7-|
|--3---3----3--3-3-3-|-5--5---5-5-5-5-|
|--2---2----2--2-2-2-|-4--4---4-4-4-4-|
|--4---4----4--4-4-4-|-6--6---6-6-6-6-|
|--2---2----2--2-2-2-|-4--4---4-4-4-4-|
|
|--------------------|----------------|
|--------------------|----------------|
|--------------------|----------------|
|--------------------|----------------|
|--------------------|--------6---6---|
|--5---5-5-----5---5-|-4--4-4---------|


|-(0)-------1-1-(1)-1---|---------------|----------------|--------------------|
|-(2)-------2-2-(2)-2---|---------------|----------------|--------------------|
|-----------------------|---------------|----------------|--------------------|
|-----------------------|---------------|----------------|--------------------|
|-----------------------|-2-------------|----------------|--------------------|
|-----------------------|---------------|----------------|--------------------|
|
|--4---4--4------4------|-2--2--2-2-2-2-|-2--2---2-2-2-2-|--2---2----2--2-2-2-|
|--6---6--6------6------|-4--4--4-4-4-4-|-4--4---4-4-4-4-|--4---4----4--4-4-4-|
|--4---4--4------4------|-2--2--2-2-2-2-|-2--2---2-2-2-2-|--2---2----2--2-2-2-|
|--6---6--6------6------|-4--4--4-4-4-4-|-4--4---4-4-4-4-|--4---4----4--4-4-4-|
|--4---4--4------4------|-2--2--2-2-2-2-|-2--2---2-2-2-2-|--2---2----2--2-2-2-|
|-----------------------|---------------|----------------|--------------------|
|
|-----------------------|---------------|----------------|--------------------|
|-----------------------|---------------|----------------|--------2-(2)-------|
|-----------------------|---------------|------------4-2-|-(2)------------2h4-|
|-----------------------|---------------|-4----0h1-4-----|------4-------4-----|
|--4---4--4------4----4-|-2-------------|-2--------------|--------------------|
|-----------------------|---------------|----------------|--------------------|


  Gtr II
|-2--2---2-2-2-2-|--2---2----2--2-2-2-|-2--2---2-2-2-2-|--2---2----2--2-2-2-|
|-4--4---4-4-4-4-|--4---4----4--4-4-4-|-4--4---4-4-4-4-|--4---4----4--4-4-4-|
|-2--2---2-2-2-2-|--2---2----2--2-2-2-|-2--2---2-2-2-2-|--2---2----2--2-2-2-|
|-4--4---4-4-4-4-|--4---4----4--4-4-4-|-4--4---4-4-4-4-|--4---4----4--4-4-4-|
|-2--2---2-2-2-2-|--2---2----2--2-2-2-|-2--2---2-2-2-2-|--2---2----2--2-2-2-|
|----------------|--------------------|----------------|--------------------|
|
| Gtr I
|----------------|--------------------|----------------|--------------------|
|----------------|--------2-(2)-------|----------------|--------2-(2)-------|
|------------4-2-|-(2)------------2h4-|------------4-2-|-(2)------------2h4-|
|-4----0h1-4-----|------4-------4-----|-4----0h1-4-----|------4-------4-----|
|-2--------------|--------------------|-2--------------|--------------------|
|----------------|--------------------|----------------|--------------------|


  Gtr III
|-5--------------------------|--7---------------------------|
|-4--------------------------|--5---------------------------|
|----------------------------|--1---------------------------|
|-4--------------------------|------------------------------|
|----------------------------|------------------------------|
|----------------------------|------------------------------|
|
| Gtr II
|-2-2-2-2-2---------2-2-2----|--2---2-2-2-2---------2--2--2-|
|-4-4-4-4-4---------4-4-4----|--4---4-4-4-4---------4--4--4-|
|-2-2-2-2-2---------2-2-2----|--2---2-2-2-2---------2--2--2-|
|-4-4-4-4-4---------4-4-4----|--4---4-4-4-4---------4--4--4-|
|-2-2-2-2-2---------2-2-2----|--2---2-2-2-2---------2--2--2-|
|----------------------------|------------------------------|
|
| Gtr I
|----------------------------|------5-----------------------|
|---------3b4r(3)-3---3-5b7==|=(5)r-------5b6r(5)-5---(5)---|
|-4---4-------------4--------|------------------------------|
|----------------------------|------------------------------|
|----------------------------|------------------------------|
|----------------------------|------------------------------|


|--2--------------------|--4------------------------------|
|-----------------------|--0------------------------------|
|--2--------------------|---------------------------------|
|-----------------------|---------------------------------|
|-----------------------|---------------------------------|
|-----------------------|---------------------------------|
|
|--2-2--2-2--2--2--2--2-|--2--2-------------2--2--2-2-2-2-|
|--4-4--4-4--4--4--4--4-|--4--4-------------4--4--4-4-4-4-|
|--2-2--2-2--2--2--2--2-|--2--2-------------2--2--2-2-2-2-|
|--4-4--4-4--4--4--4--4-|--4--4-------------4--4--4-4-4-4-|
|--2-2--2-2--2--2--2--2-|--2--2-------------2--2--2-2-2-2-|
|-----------------------|---------------------------------|
|
|-----------10----10-12-|-12-12b13r(12)-12-10-------------|
|-12---12------12-------|---------------------12-12-------|
|-----------------------|---------------------------------|
|-----------------------|---------------------------------|
|-----------------------|---------------------------------|
|-----------------------|---------------------------------|


|-5---------------|-5---------------|-7-------------|--------------------|
|-2---------------|-2---------------|-4-------------|--------------------|
|-----------------|-----------------|---------------|--------------------|
|-----------------|-----------------|---------------|--------------------|
|-----------------|-----------------|---------------|--------------------|
|-----------------|-----------------|---------------|--------------------|
|
| Gtrs I, II                          Gtr I
|-----------------|-----------------|---------------|--------------------|
|-----------------|-----------------|---------------|--------------------|
|-----------------|-----------------|---------------|--------------------|
|-4-4-4-4-4-4-4-4-|-4-4-4-4-4-4-4-4-|-----------2-0-|-(0)----4-(4)---0-2-|
|-2-2-2-2-2-2-2-2-|-2-2-2-2-2-2-2-2-|---------2-----|------2-------2-----|
|-----------------|-----------------|-0---3-4-------|--------------------|


|----------------|---------------------|
|----------------|---------------------|
|----------------|---------------------|
|----------------|---------------------|
|----------------|---------------------|
|----------------|---------------------|
|
| Gtr II
|-0--0---0-0---0-|--0--0-0----0----0---|
|-0--0---0-3---2-|--0--0-0----3----2---|
|-1--1---1-1---1-|--1--1-1----1----1---|
|-2--2---2-2---2-|--2--2-2----2----2---|
|-2--2---2-2---2-|--2--2-2----2----2---|
|-0--0---0-0---0-|--0--0-0----0----0---|
|
| Gtr I
|----------------|---------------------|
|----------------|---------------------|
|----------------|---------------------|
|------------2-0-|-(0)-----4-(4)---0-2-|
|----------2-----|-------2-------2-----|
|-0----3-4-------|---------------------|


|-5-4-2-0-(0)-0-----|---------------------|
|-------------------|---------------------|
|-------------------|---------------------|
|-------------------|---------------------|
|-------------------|---------------------|
|-------------------|---------------------|
|
|-0---0----0--0---0-|--0--0-0----0----0---|
|-0---0----0--3---2-|--0--0-0----3----2---|
|-1---1----1--1---1-|--1--1-1----1----1---|
|-2---2----2--2---2-|--2--2-2----2----2---|
|-2---2----2--2---2-|--2--2-2----2----2---|
|-0---0----0--0---0-|--0--0-0----0----0---|
|
|-------------------|---------------------|
|-------------------|---------------------|
|-------------------|---------------------|
|---------------2-0-|-(0)-----4-(4)---0-2-|
|-------------2-----|-------2-------2-----|
|-0-----3--4--------|---------------------|


|-5-4-2-0-(0)-------|---------------------|
|-7-5-4-0-(0)-------|---------------------|
|-------------1-1-1-|-(1)-----------------|
|-------------2-2-2-|-(2)-----------------|
|-------------------|---------------------|
|-------------------|---------------------|
|
|-0---0----0--0---0-|--0--0-0----0----0---|
|-0---0----0--3---2-|--0--0-0----3----2---|
|-1---1----1--1---1-|--1--1-1----1----1---|
|-2---2----2--2---2-|--2--2-2----2----2---|
|-2---2----2--2---2-|--2--2-2----2----2---|
|-0---0----0--0---0-|--0--0-0----0----0---|
|
|-------------------|---------------------|
|-------------------|---------------------|
|-------------------|---------------------|
|---------------2-0-|-(0)-----4-(4)---0-2-|
|-------------2-----|-------2-------2-----|
|-0-----3--4--------|---------------------|


|-5-4-2-0-(0)-------|--------------------|
|-------------------|--------------------|
|-------------2-----|--------------------|
|-------------------|--------------------|
|-------------------|--------------------|
|-------------------|--------------------|
|
|-0---0----0--0---0-|--0---0----0--0---0-|
|-2---2----2--2---2-|--2---2----2--2---2-|
|-0---0----0--0---0-|--0---0----0--0---0-|
|-2---2----2--2---2-|--2---2----2--2---2-|
|-0---0----0--0---0-|--0---0----0--0---0-|
|-------------------|--------------------|
|
|-------------------|--------------------|
|-------------------|--------------------|
|---------------2-0-|-(0)----4-(4)---0-2-|
|-------------2-----|------2-------2-----|
|-0-----3--4--------|--------------------|
|-------------------|--------------------|


|-5-4-2-0-(0)-------|---------------------|
|-7-5-4-0-(0)-------|---------------0-4-0-|
|-------------1-1-1-|-(1)-1---------------|
|-------------2-2-2-|-(2)-2---------------|
|-------------------|---------------------|
|-------------------|---------------------|
|
|-0---0----0--0---0-|-(0)-0-0-0--0--0-0-0-|
|-0---0----0--3---2-|-(2)-0-0-0--2--2-2-2-|
|-1---1----1--1---1-|-(1)-1-1-1--1--1-1-1-|
|-2---2----2--2---2-|-(2)-2-2-2--2--2-2-2-|
|-2---2----2--2---2-|-(2)-2-2-2--2--2-2-2-|
|-0---0----0--0---0-|-(0)-0-0-0--0--0-0-0-|
|
|-------------------|---------------------|
|-------------------|---------------------|
|-------------------|---------------------|
|---------------2-0-|-(0)-----4-(4)---0-2-|
|-------------2-----|-------2-------2-----|
|-0-----3--4--------|---------------------|


|--5-------(5)--0--2---|--0--2----------------|
|-14------(14)--9-10---|--9-10----------------|
|-11------(11)-16-18---|-16-18----------------|
|----------------------|----------------------|
|----------------------|----------------------|
|----------------------|----------------------|
|
|--2--2-----2---2--2-2-|--2----2---2---2-2-2--|
|--5--5-----5---5--5-5-|--5----5---5---5-5-5--|
|--3--3-----3---3--3-3-|--3----3---3---3-3-3--|
|--2--2-----2---2--2-2-|--2----2---2---2-2-2--|
|--4--4-----4---4--4-4-|--4----4---4---4-4-4--|
|--2--2-----2---2--2-2-|--2----2---2---2-2-2--|
|
|----------------------|----------------------|
|----------------------|----------------------|
|----------------------|----------------------|
|----------------------|----------------------|
|----------------------|---------------2------|
|--2--2-2---2------2-2-|--2----2-2-0-2---2-2--|


|--4--2----0--(0)--2----0-|--(0)----------0---|
|-12-10----9--(9)-10----2-|--(2)--------2---2-|
|-20-18---16-(16)-18---13-|-(13)--------------|
|-------------------------|-------------------|
|-------------------------|-------------------|
|-------------------------|-------------------|
|
|--2----2------2---2-2--2-|---2---2---2-2-2-2-|
|--5----5------5---5-5--5-|---5---5---5-5-5-5-|
|--3----3------3---3-3--3-|---3---3---3-3-3-3-|
|--2----2------2---2-2--2-|---2---2---2-2-2-2-|
|--4----4------4---4-4--4-|---4---4---4-4-4-4-|
|--2----2------2---2-2--2-|---2---2---2-2-2-2-|
|
|-------------------------|-------------------|
|-------------------------|-------------------|
|-------------------------|-------------------|
|-------------------------|-------------------|
|-------------------------|-------------------|
|--2----2--2-------2----0-|---0h2-2-2-2-2-2-2-|


|--4-2-----(2)-0-2---|-5----------1-0-|
|-10-----------------|-4----------2-2-|
|--------------------|----------1-----|
|--------------------|----------------|
|--------------------|----------------|
|--------------------|----------------|
|
|--2---2----2--2-2-2-|-4--4---4-4-4-4-|
|--5---5----5--5-5-5-|-7--7---7-7-7-7-|
|--3---3----3--3-3-3-|-5--5---5-5-5-5-|
|--2---2----2--2-2-2-|-4--4---4-4-4-4-|
|--4---4----4--4-4-4-|-6--6---6-6-6-6-|
|--2---2----2--2-2-2-|-4--4---4-4-4-4-|
|
|--------------------|----------------|
|--------------------|----------------|
|--------------------|----------------|
|--------------------|----------------|
|--------------------|--------6---6---|
|--5---5-5-----5---5-|-4--4-4---------|


|-(0)-------1-1-(1)-1---|----------------|---------------|--------------------|
|-(2)-------2-2-(2)-2---|-4--------------|---------------|--------------------|
|-----------------------|-4--------------|---------------|--------------------|
|-----------------------|----------------|---------------|--------------------|
|-----------------------|----------------|---------------|--------------------|
|-----------------------|----------------|---------------|--------------------|
|
|--4---4--4------4------|-2--2---2-2-2-2-|-0-------------|--------------------|
|--6---6--6------6------|-4--4---4-4-4-4-|-0-------------|--------------------|
|--4---4--4------4------|-2--2---2-2-2-2-|-1-------------|--------------------|
|--6---6--6------6------|-4--4---4-4-4-4-|-2-------------|--------------------|
|--4---4--4------4------|-2--2---2-2-2-2-|-2-------------|--------------------|
|-----------------------|----------------|-0-------------|--------------------|
|
|-----------------------|----------------|---------------|--------------------|
|-----------------------|----------------|---------------|--------------------|
|-----------------------|----------------|---------------|--------------------|
|-----------------------|----------------|-----------2-0-|-(0)----4-(4)---0-2-|
|--4---4--4------4----4-|-2--2-2-2-2-2-2-|---------2-----|------2-------2-----|
|-----------------------|----------------|-0---3-4-------|--------------------|


  Gtr II
|---------------|--------------------|-0--0---0-0---0-|--0--0-0----0----0---|
|---------------|--------------------|-0--0---0-3---2-|--0--0-0----3----2---|
|---------------|--------------------|-1--1---1-1---1-|--1--1-1----1----1---|
|---------------|--------------------|-2--2---2-2---2-|--2--2-2----2----2---|
|---------------|--------------------|-2--2---2-2---2-|--2--2-2----2----2---|
|---------------|--------------------|-0--0---0-0---0-|--0--0-0----0----0---|
|
| Gtr I
|---------------|--------------------|----------------|---------------------|
|---------------|--------------------|----------------|---------------------|
|---------------|--------------------|----------------|---------------------|
|-----------2-0-|-(0)----4-(4)---0-2-|------------2-0-|-(0)-----4-(4)---0-2-|
|---------2-----|------2-------2-----|----------2-----|-------2-------2-----|
|-0---3-4-------|--------------------|-0----3-4-------|---------------------|


  Gtr III
|----------------|---------------------|
|----------------|---------------------|
|----------------|---------------------|
|----------------|---------------------|
|----------------|---------------------|
|----------------|---------------------|
|
| Gtr II
|-0--0---0-0---0-|--0--0-0----0----0---|
|-0--0---0-3---2-|--0--0-0----3----2---|
|-1--1---1-1---1-|--1--1-1----1----1---|
|-2--2---2-2---2-|--2--2-2----2----2---|
|-2--2---2-2---2-|--2--2-2----2----2---|
|-0--0---0-0---0-|--0--0-0----0----0---|
|
| Gtr I
|----------------|---------------------|
|----------------|---------------------|
|----------------|---------------------|
|------------2-0-|-(0)-----4-(4)---0-2-|
|----------2-----|-------2-------2-----|
|-0----3-4-------|---------------------|


||------0----2--0-----|---------------------|
||o-----9----4--9-----|---------------------|
||-----16---14-16-----|---------------------|
||--------------------|---------------------|
||o-------------------|---------------------|
||--------------------|---------------------|
|
||--0---0----0--0---0-|--0--0-0----0----0---|
||o-0---0----0--3---2-|--0--0-0----3----2---|
||--1---1----1--1---1-|--1--1-1----1----1---|
||--2---2----2--2---2-|--2--2-2----2----2---|
||o-2---2----2--2---2-|--2--2-2----2----2---|
||--0---0----0--0---0-|--0--0-0----0----0---|
|
||--------------------|---------------------|
||o-------------------|---------------------|
||--------------------|---------------------|
||----------------2-0-|-(0)-----4-(4)---0-2-|
||o-------------2-----|-------2-------2-----|
||--0-----3--4--------|---------------------|


                                           4x
|-----0----2--0---2-|-(2)------------------||
|-----9----4--9---0-|-(0)-----------------o||
|----16---14-16---8-|-(8)------------------||
|-------------------|----------------------||
|-------------------|---------------------o||
|-------------------|----------------------||
|
|                                          4x
|-0---0----0--0---0-|--0--0-0----0----0----||
|-0---0----0--3---2-|--0--0-0----3----2---o||
|-1---1----1--1---1-|--1--1-1----1----1----||
|-2---2----2--2---2-|--2--2-2----2----2----||
|-2---2----2--2---2-|--2--2-2----2----2---o||
|-0---0----0--0---0-|--0--0-0----0----0----||
|
|                                          4x
|-------------------|----------------------||
|-------------------|---------------------o||
|-------------------|----------------------||
|---------------2-0-|-(0)-----4-(4)---0-2--||
|-------------2-----|-------2-------2-----o||
|-0-----3--4--------|----------------------||

Guitar Tabs FROM THE TOP 60 ARTISTS
1.  AC/DC Guitar Tabs
2.  AEROSMITH Guitar Tabs
3.  ALANIS MORISSETTE Guitar Tabs
4.  BEATLES Guitar Tabs
5.  BLINK 182 Guitar Tabs
6.  BOB DYLAN Guitar Tabs
7.  BOB MARLEY Guitar Tabs
8.  BUSH Guitar Tabs
9.  COLDPLAY Guitar Tabs
10.  DAVE MATTHEWS Guitar Tabs
11.  ERIC CLAPTON Guitar Tabs
12.  GRATEFUL Dead Guitar Tabs
13.  GREEN DAY Guitar Tabs
14.  IRON MAIDEN Guitar Tabs
15.  JACK JOHNSON Guitar Tabs
16.  JIMI HENDRIX Guitar Tabs
17.  JOHN MAYER Guitar Tabs
18.  JOHNNY CASH Guitar Tabs
19.  LED ZEPPELIN Guitar Tabs
20.  LIMP BIZKIT Guitar Tabs
21.  METALLICA Guitar Tabs
22.  NEIL YOUNG Guitar Tabs
23.  NIRVANA Guitar Tabs
24.  PEARL JAM Guitar Tabs
25.  PINK FLOYD Guitar Tabs
26.  RADIOHEAD Guitar Tabs
27  RED HOT CHILI PEPPERS Guitar Tabs
28  ROLLING STONES Guitar Tabs
29  STONE TEMPLE PILOTS Guitar Tabs
30  U2 Guitar Tabs
31.  VAN HALEN Guitar Tabs
32.  WEEZER Guitar Tabs