Guitar Resources


Dont Let Me Down (2) (By BEATLES)
 
DON'T LET ME DOWN 
transcribed by MaxxDaddy

Intro riff:
 E
-------------------------
-------------------------
-------9-9----9----------
-9--9--9-9h11-9-9-----9~-
-9h11-----------9-12-11~-
-------------------------

Chorus:
 F#m7   F#m7/B 
--9--------9---
--10-------10--
--9--------9---
--11-------9---
--9--------9---
---------------

Verse:
"like she does: 
          F#m7                                              Emaj7  Esus E
-----------14\12--12--12\9---9---9----------------------------7-----7---0-
-----------14\12--12--12\10--10--10---------------------------9-----10--0-
-------------------------------------11\9--9--9--9\6--6--6----8-----9---1-
--------------------------------------------------------------9-----9---2-
--------------------------------------------------------------7-----7---2-
------------------------------------------------------------------------0-

"like she do me"
           F#m7                                               Emaj7 Esus  E  
-----------14\12--12--12\9---9---9------------------------------------------
-----------14\12--12--12\10--10--10--10-----------------------9-------9-9---
-------------------------------------11--11-11-11-9--9\6-6/9--9--9----9-9-9-
-----------------------------------------11-11-11-9-----------9--9h11-----9-
----------------------------------------------------------------------------
----------------------------------------------------------------------------

Bridge:
"for the first time"                             
  E                                             B7  
---------------------------------------------------------------------------
---------------------------------------------------------------------------
----------------9--8--9--6--9-----9-----9-----9----------------------------
-------------------------------9-----6--------------------7-----6----------
-------------7-----------------------------9--------9--6-----9-----7--9--6-
-------------------------------------------------7-------------------------
                                               E   A  E
----------------------------------------------
----------------------------------------------
----------------------------------------------
--------------------7-----6-------------------
-7-----6------9--6-----9-----7--9--6--7-----6-
----7------7-----------------------------7----

Lyrics:

(*-intro riff)


Chorus:

*

               F#m7   F#m7/B        E* A  E
  Don't let me down   Don't let me down             
             F#m7   F#m7/B        E*  A  E
Don't let me down   Don't let me down


E                             F#m7 
Nobody ever loved me like she does  
                     F#m/B      Emaj7 Esus  E
oo she does  yes she does
E                                      F#m7              
And if somebody ever loved me like she do me  
                      F#m/B      Emaj7  Esus  E 
oo she do me, yes she does

(chorus)

E                                       F#m7 
And from the first time that she really done me   
                            F#m/B      Emaj7 Esus  E
oo she done me, she done me good
E                          F#m7 
I guess nobody ever really done me  
                            F#m/B      Emaj7 Esus  E
oo she done me, she does me good

(chorus)

E                                                          B7
I'm in love for the first time  Don't you know it's gonna last
                                                           E *  A  E
It's a love that lasts forever,   It's a love that had no past

(chorus)
Guitar Tabs FROM THE TOP 60 ARTISTS
1.  AC/DC Guitar Tabs
2.  AEROSMITH Guitar Tabs
3.  ALANIS MORISSETTE Guitar Tabs
4.  BEATLES Guitar Tabs
5.  BLINK 182 Guitar Tabs
6.  BOB DYLAN Guitar Tabs
7.  BOB MARLEY Guitar Tabs
8.  BUSH Guitar Tabs
9.  COLDPLAY Guitar Tabs
10.  DAVE MATTHEWS Guitar Tabs
11.  ERIC CLAPTON Guitar Tabs
12.  GRATEFUL Dead Guitar Tabs
13.  GREEN DAY Guitar Tabs
14.  IRON MAIDEN Guitar Tabs
15.  JACK JOHNSON Guitar Tabs
16.  JIMI HENDRIX Guitar Tabs
17.  JOHN MAYER Guitar Tabs
18.  JOHNNY CASH Guitar Tabs
19.  LED ZEPPELIN Guitar Tabs
20.  LIMP BIZKIT Guitar Tabs
21.  METALLICA Guitar Tabs
22.  NEIL YOUNG Guitar Tabs
23.  NIRVANA Guitar Tabs
24.  PEARL JAM Guitar Tabs
25.  PINK FLOYD Guitar Tabs
26.  RADIOHEAD Guitar Tabs
27  RED HOT CHILI PEPPERS Guitar Tabs
28  ROLLING STONES Guitar Tabs
29  STONE TEMPLE PILOTS Guitar Tabs
30  U2 Guitar Tabs
31.  VAN HALEN Guitar Tabs
32.  WEEZER Guitar Tabs