Guitar Resources


Dont Pass Me By (By BEATLES)
 
THE BEATLES - DON'T PASS ME BY
WORDS AND MUSIC BY RINGO STARR
transcribed by MaxxDaddy
______________________________


This song is played with fiddle, drums, bass and keyboard
the sound of the keyboard can be approximated with an electric
guitar and a flanger pedal with a fast rate.

Intro:
(as played by fiddle)
-----------13--15-13-12--------------------------------
-15-13-15----------------15--13----13------------------
--------------------------------14-----12--------------
-------------------------------------------14--12-10-9-
-------------------------------------------------------
-------------------------------------------------------

-----------------
-----------------
-----------------
-----------------
-10h12--8-7------
------------10-8-

Outro (as played by fiddle)
------------------------------------------------------------
------------------------------------------------------------
-------9--------9-------------------------------------------
-10-12---10--12---10--------10------------------------------
----------------------10h12----------10-12-10-------------7-
-------------------------------12-13----------13-12--8-10---

--------------------------------------------
--------------------------------------------
----------------------0-2-0-----------------
-------2~---------0-2-------2---0-----------
-3-0----------0-3-------------3---3-1-0-----
-----3------3---------------------------3-0-


  C
I listen for your footsteps coming up the drive
F
Listen for your footsteps but they don't arrive
G
Waiting for your knock dear on my old front door 
        F                                          C
I don't hear it does it mean you don't love me any more

  C
I hear the clock ticking on the matle shelf
F
See the hands a moving but I'm by myself
  G
I wonder where you are tonight and why I'm by myself
        F                                           C 
I don't see you does it mean you don't love me anymore

                C           
Don't pass me by don't make me cry don't make me blue
                 F
'cause you know darling you know I love only you
              C                                        
you'll never know it hurt me so how I hate to see you go
              G
Don't pass me by
              F
Don't make me cry

      C
I'm sorry that I doubted you I was so unfair
F
you were in a car crash and you lost your hair
     G
you said that you would be late about an hour or two
   F                                                         C
I said that's alright I'm waiting here waiting to hear from you

(chorus)

...one two three four five six seven eight

(chorus)
Guitar Tabs FROM THE TOP 60 ARTISTS
1.  AC/DC Guitar Tabs
2.  AEROSMITH Guitar Tabs
3.  ALANIS MORISSETTE Guitar Tabs
4.  BEATLES Guitar Tabs
5.  BLINK 182 Guitar Tabs
6.  BOB DYLAN Guitar Tabs
7.  BOB MARLEY Guitar Tabs
8.  BUSH Guitar Tabs
9.  COLDPLAY Guitar Tabs
10.  DAVE MATTHEWS Guitar Tabs
11.  ERIC CLAPTON Guitar Tabs
12.  GRATEFUL Dead Guitar Tabs
13.  GREEN DAY Guitar Tabs
14.  IRON MAIDEN Guitar Tabs
15.  JACK JOHNSON Guitar Tabs
16.  JIMI HENDRIX Guitar Tabs
17.  JOHN MAYER Guitar Tabs
18.  JOHNNY CASH Guitar Tabs
19.  LED ZEPPELIN Guitar Tabs
20.  LIMP BIZKIT Guitar Tabs
21.  METALLICA Guitar Tabs
22.  NEIL YOUNG Guitar Tabs
23.  NIRVANA Guitar Tabs
24.  PEARL JAM Guitar Tabs
25.  PINK FLOYD Guitar Tabs
26.  RADIOHEAD Guitar Tabs
27  RED HOT CHILI PEPPERS Guitar Tabs
28  ROLLING STONES Guitar Tabs
29  STONE TEMPLE PILOTS Guitar Tabs
30  U2 Guitar Tabs
31.  VAN HALEN Guitar Tabs
32.  WEEZER Guitar Tabs