Guitar Resources


For No One (2) (By BEATLES)
 
Date: Mon, 23 Dec 2002 17:25:16 +1100
Subject: b/beatles/for_no_one.tab

THE BEATLES
FOR NO ONE
FROM THE 1966 ALBUM 'REVOLVER'


THIS TAB IS ALL OUR OWN WORK

TABBED BY HARLAN L THOMPSON (harlant@uhunix.uhcc.hawaii.edu)
	  STEPHEN CONSTANTINE (steveconst@hotmail.com)



VERSE:

  C               Em
Your day breaks...
Am            C/G              Fmaj7               Bb
You find that...
               C
When she no...


CHORUS:
            Dm             A7
And in her...
Dm                   A7     Dm
No sign of love...
            A7
Cried for...
Dm                       A7     Dm   G11 G7
A love that ...



FRENCH HORN ARRANGED FOR LEAD GUITAR:

-------------11-14-16-14----------11-14-12-11-12-11-
----12----12-------------12----12-------------------
-11----11-------------------11----------------------
----------------------------------------------------
----------------------------------------------------
----------------------------------------------------


----------------------------------------------------
-12------------9-12-12-10-9-10-9----9---------------
----11-------9-------------------11---11-9-11-9-8---
-------14-13----------------------------------------
----------------------------------------------------
----------------------------------------------------


----------------------------------------------------
-11-----------11------------------------------------
---------9-11---------------------------------------
----9-11--------------------------------------------
----------------------------------------------------
----------------------------------------------------

IRREGULAR CHORDS:

G11: 3 x 0 2 1 1
C/G: 3 3 2 0 1 0
Guitar Tabs FROM THE TOP 60 ARTISTS
1.  AC/DC Guitar Tabs
2.  AEROSMITH Guitar Tabs
3.  ALANIS MORISSETTE Guitar Tabs
4.  BEATLES Guitar Tabs
5.  BLINK 182 Guitar Tabs
6.  BOB DYLAN Guitar Tabs
7.  BOB MARLEY Guitar Tabs
8.  BUSH Guitar Tabs
9.  COLDPLAY Guitar Tabs
10.  DAVE MATTHEWS Guitar Tabs
11.  ERIC CLAPTON Guitar Tabs
12.  GRATEFUL Dead Guitar Tabs
13.  GREEN DAY Guitar Tabs
14.  IRON MAIDEN Guitar Tabs
15.  JACK JOHNSON Guitar Tabs
16.  JIMI HENDRIX Guitar Tabs
17.  JOHN MAYER Guitar Tabs
18.  JOHNNY CASH Guitar Tabs
19.  LED ZEPPELIN Guitar Tabs
20.  LIMP BIZKIT Guitar Tabs
21.  METALLICA Guitar Tabs
22.  NEIL YOUNG Guitar Tabs
23.  NIRVANA Guitar Tabs
24.  PEARL JAM Guitar Tabs
25.  PINK FLOYD Guitar Tabs
26.  RADIOHEAD Guitar Tabs
27  RED HOT CHILI PEPPERS Guitar Tabs
28  ROLLING STONES Guitar Tabs
29  STONE TEMPLE PILOTS Guitar Tabs
30  U2 Guitar Tabs
31.  VAN HALEN Guitar Tabs
32.  WEEZER Guitar Tabs