Guitar Resources


Help (2) (By BEATLES)
 
Beatles - Help!

Bm                     Bm/A
Help_!     I need somebody__
G                      G/F#
Help_!     Not just anybo_dy__
E
Help_!     You know I need someone__,
A7 (&Riff2)
Help____!

Riff1 (Lead guitar at chorus)
e|--|--------------------|-------------------|--------------------|------|
B|--|--------------------|-------------------|--------------------|------|
G|--|--------------------|-------------------|--------------------|------|
D|--|--------------------|-------------------|--------------------|------|
A|--|--2--------0--------|-------------------|--------------------|------|
E|--|--------------------|--3----------------|--3--------2--------|--0---|
  Bm   Bm       Bm/A        G                   G        G/F#        E

Riff2 (Played at A7, end of chorus)
e--------------------------|--------------------------|
B-----------0-----------0--|-----------0-----------0--|
G--------0-----------0-----|--------0-----------0-----|
D-----5-----------4--------|-----3-----------2--------|
A--7-----------6-----------|--5-----------4-----------|
E--------------------------|--------------------------|

A                            C#m
 When I was younger, so much younger than today___,
(when_____     when_ I_ was_ young___              I__ never_ need___)
 F#m                      D        G   A
 I never needed anybody's help_ in any way_.
                         (help_ in any way_)
 A                                    C#m
 But now these days are gone_ and I'm not_ so self-assu__red__,
(Now_____               these days are gone__                  Now I find__)
 F#m                                   D      G       A
 Now I find I've changed my mind, I've opened up_ the doors__.
                                 (I've opened up_ the doors__)

[Chorus]
 Bm                                   Bm/A    G                            G/F# 
Help me if you can I'm feeling down__, and I do appreciate you being 'round__.
 E                                                     A7 (&Riff2)             A
Help me get my feet back on the ground__,    won't you please_ please_ help me_

 A                              C#m
 And now my life has changed in oh so many ways__,
(Now___          my_ live_ has_ changed__             My independ___
 F#m                       D       G      A
 My independence seemed to vanish_ in the haze_.
                          (vanish_ in the haze_)
 A                         C#m
 But every now and then I feel so insecure__,
(But_____               now and then___       I_ know that I___)
 F#m                                        D     G     A
 I know that I_  just need you like_   I've never done before__.
                                      (I've never done before__)

[Repeat chorus]
[Repeat verse 1+2] (soft guitar, little drums)
[Repeat chorus]

F#m                       A         A6 
    Help__ me__,   help__ me______ oooooo___

Guitar Tabs FROM THE TOP 60 ARTISTS
1.  AC/DC Guitar Tabs
2.  AEROSMITH Guitar Tabs
3.  ALANIS MORISSETTE Guitar Tabs
4.  BEATLES Guitar Tabs
5.  BLINK 182 Guitar Tabs
6.  BOB DYLAN Guitar Tabs
7.  BOB MARLEY Guitar Tabs
8.  BUSH Guitar Tabs
9.  COLDPLAY Guitar Tabs
10.  DAVE MATTHEWS Guitar Tabs
11.  ERIC CLAPTON Guitar Tabs
12.  GRATEFUL Dead Guitar Tabs
13.  GREEN DAY Guitar Tabs
14.  IRON MAIDEN Guitar Tabs
15.  JACK JOHNSON Guitar Tabs
16.  JIMI HENDRIX Guitar Tabs
17.  JOHN MAYER Guitar Tabs
18.  JOHNNY CASH Guitar Tabs
19.  LED ZEPPELIN Guitar Tabs
20.  LIMP BIZKIT Guitar Tabs
21.  METALLICA Guitar Tabs
22.  NEIL YOUNG Guitar Tabs
23.  NIRVANA Guitar Tabs
24.  PEARL JAM Guitar Tabs
25.  PINK FLOYD Guitar Tabs
26.  RADIOHEAD Guitar Tabs
27  RED HOT CHILI PEPPERS Guitar Tabs
28  ROLLING STONES Guitar Tabs
29  STONE TEMPLE PILOTS Guitar Tabs
30  U2 Guitar Tabs
31.  VAN HALEN Guitar Tabs
32.  WEEZER Guitar Tabs