Guitar Resources


Here There And Everywhere (3) (By BEATLES)
 
This is one of The Beatles greatest songs. I have it tabbed to be finger-picked
and the chords are noted above the notes for rythm guitar players. The chords in
Part I should be strummed once and then let them ring out until the next chord
is strummed. The complete lyrics are added at the bottom of the tab along with
the order in which to play the parts. It is a very difficult piece to play, so
I reccomend starting at a slow tempo and working your way up to the speed it is
played at on the album.

The Beatles - Here, There And Everywhere


Part I
 G           Bm          Bb                        Am7         D7
|3-----------------------|------------1-----------|------------------2-----|
|0--------0--3--3--3-----|3--------3--------4--3--|------3-----------1-----|
|0-----0-----4-----------|3-----3-----------------|------0-----------2-----|
|0--0--------4-----------|3--3--------------------|---2-----2-----0--------|
|2-----------2-----------|1-----------------------|0-----------0-----------|
|3-----------------------|------------------------|------------------------|
 1  +  2  +  3  +  4  +   1  +  2  +  3  +  4  +   1  +  2  +  3  +  4  +

Part II
 G           Am7          Bm          C            G           Am7
|------------------------|------5--3--------0-----|------------------------|
|------------------------|0--3--------------------|3-----------------------|
|0-----------------------|---------------5--0-----|4--------------2--------|
|------0-----------2-----|------4-----------------|------0-----------2-----|
|------------0-----------|2-----------3-----------|------------0-----------|
|3-----------------------|------------------------|3-----------------------|
 1  +  2  +  3  +  4  +   1  +  2  +  3  +  4  +   1  +  2  +  3  +  4  +

 Bm       C               F#m11       B7           F#m11         B7
|---------0--------------|------------------------|------------------------|
|0--1--3--1--------------|0--0--0--0--------------|0--1--0--0--------------|
|---------------0--2-----|2--------2--------------|2--------2--------------|
|------4-----------------|2--------1--------------|2--------1--------------|
|2-----------3-----0-----|---------2--------0-----|------------------0-----|
|---------------------3--|2--------------------3--|2--------2-----------3--|
 1  +  2  +  3  +  4  +   1  +  2  +  3  +  4  +   1  +  2  +  3  +  4  +

                          First Ending             Second Ending
 Em          Am                 Am7   D7                 Am7   D7        
|------------2-----0-----|------3-----2-----------|------3-----2-----------|
|---------0--------1-----|------1-----1-----------|------1-----1--------1--|
|2--0--2-----------2-----|2-----0-----2-----------|2-----0-----2--2--3-----|
|------------------2-----|------2-----0-----5--4--|------2-----0-----------|
|---------2-----0--------|0-----------------------|0-----------------3-----|
|2--0--------------------|------------------------|------------------------|
 1  +  2  +  3  +  4  +   1  +  2  +  3  +  4  +   1  +  2  +  3  +  4  +

Part III
 Bb          Gm           Cm          D7           Gm
|------------------------|------------------------|------------------------|
|---6--------------------|---3--4--------------1--|3--3--4--5--6--5--4--3--|
|7-----7--------5-----3--|5--------5--2--2--3-----|3--3--0-----------------|
|------8-----------5-----|------5-----------0-----|------------------------|
|---------0--------------|3-----------------------|------------------------|
|6-----------3-----------|------------2-----------|3-----------------------|
 1  +  2  +  3  +  4  +   1  +  2  +  3  +  4  +   1  +  2  +  3  +  4  +

 Cm          D7           G           Am7
|------2-----------------|------------------------|
|3--6--3--3--1--1--3--4--|3-----0-----------------|
|4--7-----4--2--2--3--5--|4--------0--------------|
|------4-----------0-----|------0-----------2-----|
|3-----------------------|------------0-----------|
|------------2-----------|3-----------------------|
 1  +  2  +  3  +  4  +   1  +  2  +  3  +  4  +   

Part IV                          (1/16 note)
 G           Am7          Bm          C            G           Am7
|------------------------|------------------------|------------------------|
|---------------------0--|3----------0------------|---------------------0--|
|0-----------2-----------|------------2--0--------|0-----------2-----------|
|------0-----------2-----|------4-----------0-----|------0-----------2-----|
|------------0-----------|2--------------3--------|------------0-----------|
|3-----------------------|------------------------|3-----------------------|
 1  +  2  +  3  +  4  +   1  +  2  +  3  +  4  +   1  +  2  +  3  +  4  +

Bm           C            G
|7-----5-----3-----------|3-----------------------|
|------6-----5-----------|3-----------------------|
|7-----4-----5-----------|4-----------------------|
|------4-----5-----------|5-----------------------|
|------------3-----------|5-----------------------|
|7-----------------------|3-----------------------|
 1  +  2  +  3  +  4  +   1  +  2  +  3  +  4  +


This is how the song all fits together.

Part I
To lead a better life
I need my love to be here

Part II (First ending)
Here, making each day of the year
Changing my life with a wave of her hand
Nobody can deny that there's something there

Part II (Second ending)
There, running my hands through her hair
Both of us thinking how good it can be
Someone is speaking but she doesn't know he's there

Part III
I want her everywhere
And if she's beside me
I know I need never care
But to love her is to need her everywhere

Part II (Second ending)
Knowing that love is to share
Each one believing that love never dies
Watching her eyes and hoping I'm always there

Part III
I want her everywhere
And if she's beside me
I know I need never care
But to love her is to need her everywhere

Part II (First Ending)
Knowing that love is to share
Each one believing that love never dies
Watching her eyes and hoping I'm always there

Part IV
To be there and everywhere
Here, there and everywhere


Well, there you go. That's the complete song and lyrics. Enjoy.


  Tabbed by Frank Reder         I know it's only rock 'n roll
  reder212@optonline.net        But I like it just the same.
                                     -The Rolling Stones
Guitar Tabs FROM THE TOP 60 ARTISTS
1.  AC/DC Guitar Tabs
2.  AEROSMITH Guitar Tabs
3.  ALANIS MORISSETTE Guitar Tabs
4.  BEATLES Guitar Tabs
5.  BLINK 182 Guitar Tabs
6.  BOB DYLAN Guitar Tabs
7.  BOB MARLEY Guitar Tabs
8.  BUSH Guitar Tabs
9.  COLDPLAY Guitar Tabs
10.  DAVE MATTHEWS Guitar Tabs
11.  ERIC CLAPTON Guitar Tabs
12.  GRATEFUL Dead Guitar Tabs
13.  GREEN DAY Guitar Tabs
14.  IRON MAIDEN Guitar Tabs
15.  JACK JOHNSON Guitar Tabs
16.  JIMI HENDRIX Guitar Tabs
17.  JOHN MAYER Guitar Tabs
18.  JOHNNY CASH Guitar Tabs
19.  LED ZEPPELIN Guitar Tabs
20.  LIMP BIZKIT Guitar Tabs
21.  METALLICA Guitar Tabs
22.  NEIL YOUNG Guitar Tabs
23.  NIRVANA Guitar Tabs
24.  PEARL JAM Guitar Tabs
25.  PINK FLOYD Guitar Tabs
26.  RADIOHEAD Guitar Tabs
27  RED HOT CHILI PEPPERS Guitar Tabs
28  ROLLING STONES Guitar Tabs
29  STONE TEMPLE PILOTS Guitar Tabs
30  U2 Guitar Tabs
31.  VAN HALEN Guitar Tabs
32.  WEEZER Guitar Tabs