Guitar Resources


Im Down (By BEATLES)
 
The Beatles I'm down
____________________


It sounds like one guitar plays straight barre chords 
and the other plays them in this fashion:
   E----------------------------------------|
   B----------------------------------------|
   G----------------------------------------|
   D--------------------------5--7--5--7--5-|
   A--5--7--5--7--5--7--5--7--3--3--3--3--3-|
   E--3--3--3--3--3--3--3--3----------------| etc...

   E--3----------|
   B--3----------|
   G--4---5---7--|
   D--5---5---7--|
   A--5---3---5--|
   E--3----------|
      G  C5  D5

                                          G
   You tellin lies thinking I can't see 

   You can't cry 'cos you're laughing at me
        C5
   I'm  down(I'm really down)
        G5
   I'm  down(down on the ground)
        C5
   I'm  down(I'm really down)
   C5   /   /   G5
   How can you laugh  when you know I'm down

   How can you laugh  when you know I'm down

   solo-
   E----------------------------------------|
   B----------------------------------------|
   G----------------------------------------|
   D--------3-----------------------3----3--|
   A----3\5---5---1-1---1-3-----3\5---5-----|
   E--3---------------3-------3-------------|

   E----------------------------------------|
   B----------------------------------------|
   G---------------------3----3-5b-5-5rp3-3-|
   D-5b--5-5rp3-3----3h5---5----------------|
   A--------------3-------------------------|
   E----------------------------------------|
              [alternate bends from full to half]
   E----------------------------------------|
   B----------------------------------------|
   G------3-----5b-5-5-5-5-5-5-5-5-5-5b-5r-3|
   D-5--5---5-------------------------------|
   A----------------------------------------|
   E----------------------------------------|
                               else
   E--------------------------|-------------|
   B--------------------------|-------------|
   G--------------------------|-------------|
   D-5--------------3---------|-----------5-|
   A-------1-3--3\5---5-3-1---|-----------5-|
   E-----3------------------3-|-----1b-r--3-|

The chord progression for the next verse is the same as 
above. During the piano solo the chord progression is 
G-C-G-D-C-G(etc...)



Transcribed by Bill motherfuckin'Barker

Symbols used in transcription:
\ = slide
b = bend
r = release
h = hammer-on
p = pull-off
Guitar Tabs FROM THE TOP 60 ARTISTS
1.  AC/DC Guitar Tabs
2.  AEROSMITH Guitar Tabs
3.  ALANIS MORISSETTE Guitar Tabs
4.  BEATLES Guitar Tabs
5.  BLINK 182 Guitar Tabs
6.  BOB DYLAN Guitar Tabs
7.  BOB MARLEY Guitar Tabs
8.  BUSH Guitar Tabs
9.  COLDPLAY Guitar Tabs
10.  DAVE MATTHEWS Guitar Tabs
11.  ERIC CLAPTON Guitar Tabs
12.  GRATEFUL Dead Guitar Tabs
13.  GREEN DAY Guitar Tabs
14.  IRON MAIDEN Guitar Tabs
15.  JACK JOHNSON Guitar Tabs
16.  JIMI HENDRIX Guitar Tabs
17.  JOHN MAYER Guitar Tabs
18.  JOHNNY CASH Guitar Tabs
19.  LED ZEPPELIN Guitar Tabs
20.  LIMP BIZKIT Guitar Tabs
21.  METALLICA Guitar Tabs
22.  NEIL YOUNG Guitar Tabs
23.  NIRVANA Guitar Tabs
24.  PEARL JAM Guitar Tabs
25.  PINK FLOYD Guitar Tabs
26.  RADIOHEAD Guitar Tabs
27  RED HOT CHILI PEPPERS Guitar Tabs
28  ROLLING STONES Guitar Tabs
29  STONE TEMPLE PILOTS Guitar Tabs
30  U2 Guitar Tabs
31.  VAN HALEN Guitar Tabs
32.  WEEZER Guitar Tabs