Guitar Resources


Sgt Peppers Lonely Hearts Club Band (By BEATLES)
 
THE BEATLES - Sgt Pepper's Lonely Hearts Club Band
	Tabbed by Frederic Maquet
__________________________________________________


Email me comments/suggestions/corrections at f.maquet@ic.ac.uk!!


Intro:
------
  Guitar 1:
    A
e:-------------------5~-5------------------5~-|
B:-------------5h8---5~-5-------------5h8--5~-|
G:--------------------------------------------|
D:--7--7--7---------------7--7--7-------------|
A:--7--7--7---------------7--7--7-------------|
E:--5--5--5---------------5--5--5-------------|
  Guitar 2:
e:-----------------------------8---5----------|
B:------------------------5h8--8---5----------|
G:--------------------------------------------|
D:--------------------------------------------|
A:--------------------------------------------|
E:--------------------------------------------|

Guitar 1:
   C7                      G
e:----------5--8b10---------------|
B:-----5h8----------8p6h8---------|
G:-------------------------7------|
D:--8--------------------------5//|
A:--10-------------------------5//|
E:--8--------------------------3//|
Guitar 2:
e:--------------------------------|
B:--------------------------------|
G:------7b8--7---5h7--------------|
D:--7b----------------------7-----|
A:--------------------------------|
E:--------------------------------|

Verse 1:
--------
       G		   A7	    C7			      G
It was twenty years ago today, Sgt. Pepper taught the band to play
	     G			  A7		   C7			 G
They've been going in and out of style But they're guaranteed to raise a smile.
     A7				C7
So may I introduce to you, the act you remember all these years,
G	      C7		 G
Sgt. Pepper's Lonely Hearts Club Band

Horn Break:
-----------

C7		G		C7		G
C7		G		A7		D7


Chorus:
-------
      G		    Bb7	   C7		G        C7			G
We're Sgt. Pepper's Lonely Hearts Club Band, We hope you will enjoy the show,
      G		    Bb7	   C7		G	 A7			  D7
We're Sgt. Pepper's Lonely Hearts Club Band, Sit back and let the evening go
C7			G			 
Sgt. Pepper's Lonely, Sgt. Pepper's Lonely, 
A7		     Bb7     C7   G
Sgt. Pepper's Lonely Heart's Club Band.

Interlude with horns:
---------------------
     C7				G
It's wonderful to be here, it's certainly a thrill.  
	A7			    D7
You're such a lovely audience, We'd like to take you home with us,

We'd love to take you home

Verse 2:
--------
	G			A7
I don't really want to stop the show, 
      C7  			     G
But I thought that you might like to know,
    G			     A7		  C7			  G
The singer's going to sing a song, And he wants you all to sing along.
   A7			       C7
So let me introduce to you The one and only Billy Shears
    G		 C7		    G
And Sgt. Peppers Lonely Hearts Club Band.

		 C7	 D7	   E7    (<- use F-shape bar chords)
		Biiiii-llyyyyyy  Sheaaaaaaars

Note: In the Sgt Peppers Album, the song is reprised at the end, before
a Day in the Life,
of the album, with a much quicker beat, I think the chords are the
same, except at one point they shift gears...

Chords: (mostly barre chords!)
-------				Sounds cool:
G	355433
A7	575655		or	545xxx
C7	8 10 8 9 8 8 or 	878xxx		x35353
Bb7	686766		or	656xxx
E7	020100		or	12 14 12 13 12 12
D7	x57575		or	10 12 10 11 10 10



Thanks to Aaron Rosenblum (rosenblm@maybaum.med.umich.edu ) for typing
in the original chords and lyrics on the previous post.
Guitar Tabs FROM THE TOP 60 ARTISTS
1.  AC/DC Guitar Tabs
2.  AEROSMITH Guitar Tabs
3.  ALANIS MORISSETTE Guitar Tabs
4.  BEATLES Guitar Tabs
5.  BLINK 182 Guitar Tabs
6.  BOB DYLAN Guitar Tabs
7.  BOB MARLEY Guitar Tabs
8.  BUSH Guitar Tabs
9.  COLDPLAY Guitar Tabs
10.  DAVE MATTHEWS Guitar Tabs
11.  ERIC CLAPTON Guitar Tabs
12.  GRATEFUL Dead Guitar Tabs
13.  GREEN DAY Guitar Tabs
14.  IRON MAIDEN Guitar Tabs
15.  JACK JOHNSON Guitar Tabs
16.  JIMI HENDRIX Guitar Tabs
17.  JOHN MAYER Guitar Tabs
18.  JOHNNY CASH Guitar Tabs
19.  LED ZEPPELIN Guitar Tabs
20.  LIMP BIZKIT Guitar Tabs
21.  METALLICA Guitar Tabs
22.  NEIL YOUNG Guitar Tabs
23.  NIRVANA Guitar Tabs
24.  PEARL JAM Guitar Tabs
25.  PINK FLOYD Guitar Tabs
26.  RADIOHEAD Guitar Tabs
27  RED HOT CHILI PEPPERS Guitar Tabs
28  ROLLING STONES Guitar Tabs
29  STONE TEMPLE PILOTS Guitar Tabs
30  U2 Guitar Tabs
31.  VAN HALEN Guitar Tabs
32.  WEEZER Guitar Tabs