Guitar Resources


Sun King (By BEATLES)
 
Date: Sun, 27 Oct 2002 12:48:39 -0800
From: Rob Keister <rkeister@zippnet.net>
Subject: b/beatles/sun_king.tab

Title:     Sun King
Composer:  Lennon/McCartney
Artist:    The Beatles
Album:     Abbey Road

Here is my take on this tune from Abbey Road.  It's all my own work.  I
know that it is actually a Bass and Guitar, so this tab mixes in some of
both.  I play it with some chorus and reverb.

Tabbed by: Rob Keister
            rkeister@zippnet.net
Additional chord from: Frank Filling
                        frank.filling@verizon.net



|-------------------------------------------------------------|
|-------------------------------------------------------------|
|-------2--------------------------2--------------------------|
|-------2-----2-2---2-2-2----------2-----2-2---2-2-2----------|
|-2-2/4---42----------------2-2/4---42----------------------|
|-----------------0--------------------------0----------------|


|----------------2---------2----------2------------4-----0----|
|--------------------2---------2----------2----------4---0----|
|--------------2---2---------2----------2------2/4---4---1----|
|-------------4----------4----------4---------4-/6---6---2----|
|--------2---4----------4----------4---------------------2----|
|-0--2/4------------------------------------------------------|


|-0--0-0------------------------------------------------------|
|---0---------------------------------------------------------|
|--1--0-------------------------------------------------------|
|---------------2-----2---------------------------------------|
|---------2-2/4---42-----------------------------------------|
|-------------------------------------------------------------|


|----------------2---------2----------2------------4-----0----|
|--------------------2---------2----------2----------4---0----|
|--------------2---2---------2----------2------2/4---4---1----|
|-------------4----------4----------4---------4-/6---6---2----|
|--------2---4----------4----------4---------------------2----|
|-0--2/4------------------------------------------------------|


|-0--0-0--------------------------2-2-2-2---2-3-4----0--------|
|---0-----------------------------2-2-2-2---2-3-4----0--------|
|--1--0---------------------------2-2-2-2---2-3-4----1--------|
|---------------2-----2-2---------4-4-4-4---4-5-6----2--------|
|---------2-2/4---42-----------2--------------------2--------|
|-------------------------0-2/4-------------------0--0--------|



|----5------------13-12-10----10------------------------------|
|----3----------15---------12---------------------------------|
|----3--------------------------------------------------------|
|----3--------------------------------------------------------|
|----5--------------------------------------------------------|
|----x--------------------------------------------------------|
      ^
      |
       Frank supplies this missing piece 10/21/02.


Here are the chord changes for the Sun King/Mustard/Polythene/Window  
medley:
(also according to my ear)


[B-->D  means slide that B chord up the neck to D; or vice versa]


Sun King
F#m   G#m   E  | F#m   G#m   E  | F#m -->G#m   E  |
C   Cmaj7   C   G7  A7  |  C   Cmaj7   C   G7  A7  |
F   D7 | F   D7 |  C  Em  C7  F  |  A6  B7  E | A6  B7  E |A6  B7  E |

Mean Mr. Mustard
E                      B           --> D              --> B
mean mr. mustard...    sleeps in...    saves enough...    keeps a ...
        E     C   B  | E  C  B |
such a mean...
E                      B           --> D              --> B
his sister...          takes him...    only place...      always...
        E      C   B  | E  C  B | B-->C-->C#
such a dirty...

Polythene Pam
D  A  E | D  A  E | D  A  E | D  A  E |
G       |  B      | C  D  E | C  D   E
D  A  E | D  A  E | D  A  E | D  A  E |
G       |  B      | C  D  E | C  D   E
D  A  E | D  A  E <------(repeat this during the solo)


She CITT Bathroom Window
A   D  |  A   D |  A   D  |
A  Dm  |  A  Dm | G7  C   | G7  C | A
A   D  |  A   D |  A   D  |
A  Dm  |  A  Dm | G7  C   | G7  C | A
A   D  |  A   D |  A   D  |
A  Dm  |  A  Dm | G7  C   | G7  C | A


Copyright (c) 2001 by OLGA, Inc.
Guitar Tabs FROM THE TOP 60 ARTISTS
1.  AC/DC Guitar Tabs
2.  AEROSMITH Guitar Tabs
3.  ALANIS MORISSETTE Guitar Tabs
4.  BEATLES Guitar Tabs
5.  BLINK 182 Guitar Tabs
6.  BOB DYLAN Guitar Tabs
7.  BOB MARLEY Guitar Tabs
8.  BUSH Guitar Tabs
9.  COLDPLAY Guitar Tabs
10.  DAVE MATTHEWS Guitar Tabs
11.  ERIC CLAPTON Guitar Tabs
12.  GRATEFUL Dead Guitar Tabs
13.  GREEN DAY Guitar Tabs
14.  IRON MAIDEN Guitar Tabs
15.  JACK JOHNSON Guitar Tabs
16.  JIMI HENDRIX Guitar Tabs
17.  JOHN MAYER Guitar Tabs
18.  JOHNNY CASH Guitar Tabs
19.  LED ZEPPELIN Guitar Tabs
20.  LIMP BIZKIT Guitar Tabs
21.  METALLICA Guitar Tabs
22.  NEIL YOUNG Guitar Tabs
23.  NIRVANA Guitar Tabs
24.  PEARL JAM Guitar Tabs
25.  PINK FLOYD Guitar Tabs
26.  RADIOHEAD Guitar Tabs
27  RED HOT CHILI PEPPERS Guitar Tabs
28  ROLLING STONES Guitar Tabs
29  STONE TEMPLE PILOTS Guitar Tabs
30  U2 Guitar Tabs
31.  VAN HALEN Guitar Tabs
32.  WEEZER Guitar Tabs