Guitar Resources


While My Guitar Gently Weeps (anthology 3 Version) (By BEATLES)
 
     PLEASE NOTE: This work is my own interpretation and is not to be taken
                           as how it was actually written. Any comments or questions 
                           can be sent to "kenrob67@aol.com". If anyone finds any
                           mistakes that need to be corrected, feel free to do so.

                                                                              Ken Robertson


TITLE: While My Guitar Gently Weeps  (Anthology 3 Version)
ARTIST: The Beatles
WRITTEN BY: George Harrison


|------3-----------3--------|------3-----------3--------|------3-----------3--------|------3-----------3--------|
|----------3----------------|----------3----------------|----------3----------------|----------3----------------|
|--------------3------------|--------------3------------|--------------3------------|--------------3------------|
|--5---------------------5--|--3---------------------3--|--2---------------------2--|--1--------------------1---|
|---------------------------|---------------------------|---------------------------|---------------------------|
|---------------------------|---------------------------|---------------------------|---------------------------|
  I    look    at    you     all,       see       the    love  there  that's    sleeping


|------3-----------3--------|------3-----------3--------|---------------------------|---------------------------|
|----------3----------------|----------3----------------|------5-----------5--------|------7-----------7--------|
|--------------3------------|--------------3------------|----------5----------------|----------7----------------|
|--5---------------------5--|--3---------------------3--|--------------5------------|-------------7-------------|
|---------------------------|---------------------------|--3---------------------3--|--5---------------------5--|
|---------------------------|---------------------------|---------------------------|---------------------------|
   while     my     gui-    -tar        gently          weeps                                           I


|------3-----------3--------|------3-----------3--------|------3-----------3--------|------3-----------3--------|
|----------3----------------|----------3----------------|----------3----------------|----------3----------------|
|---------------3-----------|--------------3------------|--------------3------------|--------------3------------|
|--5---------------------5--|--3---------------------3--|--2---------------------2--|--1--------------------1---|
|---------------------------|---------------------------|---------------------------|---------------------------|
|---------------------------|---------------------------|---------------------------|---------------------------|
   look     at      the      floor,      and     I        see    it    needs      sweeping


|------3-----------3--------|------3-----------3--------|---------------------------|---------------------------|
|----------3----------------|----------3----------------|------3-----------3--------|------7-----------7--------|
|--------------3------------|--------------3------------|----------3----------------|----------7----------------|
|--5---------------------5--|--3---------------------3--|--------------3------------|--------------7------------|
|---------------------------|---------------------------|--1---------------------1--|--5---------------------5--|
|---------------------------|---------------------------|---------------------------|---------------------------|
  still       my      gui-     -tar           gently      weeps




G                 Bm    Em       D
I don't know why, nobody told you
Am                       D
How to unfold your love
G                 Bm    Em               D
I don't know how, someone controlled you
Am                           D
They bought and sold you


I look at the world and I notice it's turning
While my guitar gently weeps
With every mistake, we must surely be learning
Still my guitar gently weeps

I don't know how you were diverted
You were perverted too
I don't know how you were diverted
No one alerted you

I look from the wings of the play you are staging
While my guitar gently weeps
As I'm sitting here, doing nothing but aging
Still my guitar gently weeps



ENDING:

|--6--5--3-------------|---3---|
|-------------6--3--6--|---3---|
|--3--3--3-------------|---3---|
|-------------3--3--3--|---5---|
|----------------------|-------|
|----------------------|-------|

   ***** if I remember right, this is played out 3 times*****
Guitar Tabs FROM THE TOP 60 ARTISTS
1.  AC/DC Guitar Tabs
2.  AEROSMITH Guitar Tabs
3.  ALANIS MORISSETTE Guitar Tabs
4.  BEATLES Guitar Tabs
5.  BLINK 182 Guitar Tabs
6.  BOB DYLAN Guitar Tabs
7.  BOB MARLEY Guitar Tabs
8.  BUSH Guitar Tabs
9.  COLDPLAY Guitar Tabs
10.  DAVE MATTHEWS Guitar Tabs
11.  ERIC CLAPTON Guitar Tabs
12.  GRATEFUL Dead Guitar Tabs
13.  GREEN DAY Guitar Tabs
14.  IRON MAIDEN Guitar Tabs
15.  JACK JOHNSON Guitar Tabs
16.  JIMI HENDRIX Guitar Tabs
17.  JOHN MAYER Guitar Tabs
18.  JOHNNY CASH Guitar Tabs
19.  LED ZEPPELIN Guitar Tabs
20.  LIMP BIZKIT Guitar Tabs
21.  METALLICA Guitar Tabs
22.  NEIL YOUNG Guitar Tabs
23.  NIRVANA Guitar Tabs
24.  PEARL JAM Guitar Tabs
25.  PINK FLOYD Guitar Tabs
26.  RADIOHEAD Guitar Tabs
27  RED HOT CHILI PEPPERS Guitar Tabs
28  ROLLING STONES Guitar Tabs
29  STONE TEMPLE PILOTS Guitar Tabs
30  U2 Guitar Tabs
31.  VAN HALEN Guitar Tabs
32.  WEEZER Guitar Tabs