Guitar Resources


While My Guitar Gently Weeps (anthology 3) (By BEATLES)
 
                     While My Guitar Gently Weeps
                              (Updated)
    As Performed by George Harrison on the Beatles Anthology Disc 3
                       Submitted by Tim Fischer

This is how I play it. Original version was written by Jimmy Brown.
Its played with an Acoustic Guitar with a capo at 5th fret.
Chord names at top describe fingering postitions. Be sure
to let notes ring. For the first chords mentioned in the
intro use your pinky on the B string. It makes it much easier.
If you need help listen to the recording, try to figure it out,
and if all else fails email me at tim@bbs-la.com.
I play it in this order.

Intro
Verse
Chorus (2x)
Verse
Chorus (2x)
Verse
Ending (Repeat until ready to end)

Intro:

  Dm          Dm/C            G7/B          Bb
 4/4
  Gtr I
|-1----1-----------1--------|------1----1-----------------|
|-3-------3------3------3---|------3----3--------3----3---|
|-2--------------2------2---|----0---------------3----3---|
|-0--0------0---------------|----0--------0----3----3---3-|
|-------------3-------3---3-|-2-------2---2-1--1----1---1-|
|---------------------------|-----------------------------|


  Dm            Cadd9 C          Dm
|-1----0h1p0-------------------|-1----1--------1----|
|-3----3-----3--3-----1--------|-3----3----3---3----|
|-2--2-------2--0----------0---|-2--2------2---2----|
|-0--0----------2--2-----------|-0--0----0-----0----|
|---------------3--------3---3-|-------------0-0----|
|------------------------------|--------------------|


Verse chords:

Play it like this:
Part A, Part B
Part A, Part C


Part A:
Dm, Dm/c, G7/B, Bb, Dm, C/G

Part B:
G, A7

Part C:
F, A7


Chorus Chords:
D, F#m, Bm, F#m, Em, Em7, A7


Ending:

  Dm         Bb
 4/4
|-1----1-------------------|
|-3-------3--3----3--------|
|-2----------3----3--------|
|-0---0------3--3----3-----|
|------------1--1----1-----|
|--------------------------|

An alternative to fading out would
be to finish it off with the Dm part and then:

  Dm
 4/4
|---1--|
|---3--|
|---2--|
|---0--|
|-0-0--|
|------|



Chord Definitions:

Dm                  Dm/C
x x 0 2 3 1          x 3 x 2 3 1

G7/B                  Bb
x 2 0 0 3 1          x 1 3 3 3 x

Cadd9                  C
x 3 2 0 3 x          x 3 2 0 1 x

C/G                   G
3 3 2 0 1 0          3 2 0 0 3 3

A7                    D
x 0 2 0 2 0          x x 0 2 3 2

F                   F#m
1 3 3 2 1 1          2 4 4 2 2 2

Bm                   Em
x 2 4 4 3 2          0 2 2 0 0 0

Em7
0 2 2 0 3 0

Tablature Legend
----------------
 h   - hammer-on
 p   - pull-off



Guitar Tabs FROM THE TOP 60 ARTISTS
1.  AC/DC Guitar Tabs
2.  AEROSMITH Guitar Tabs
3.  ALANIS MORISSETTE Guitar Tabs
4.  BEATLES Guitar Tabs
5.  BLINK 182 Guitar Tabs
6.  BOB DYLAN Guitar Tabs
7.  BOB MARLEY Guitar Tabs
8.  BUSH Guitar Tabs
9.  COLDPLAY Guitar Tabs
10.  DAVE MATTHEWS Guitar Tabs
11.  ERIC CLAPTON Guitar Tabs
12.  GRATEFUL Dead Guitar Tabs
13.  GREEN DAY Guitar Tabs
14.  IRON MAIDEN Guitar Tabs
15.  JACK JOHNSON Guitar Tabs
16.  JIMI HENDRIX Guitar Tabs
17.  JOHN MAYER Guitar Tabs
18.  JOHNNY CASH Guitar Tabs
19.  LED ZEPPELIN Guitar Tabs
20.  LIMP BIZKIT Guitar Tabs
21.  METALLICA Guitar Tabs
22.  NEIL YOUNG Guitar Tabs
23.  NIRVANA Guitar Tabs
24.  PEARL JAM Guitar Tabs
25.  PINK FLOYD Guitar Tabs
26.  RADIOHEAD Guitar Tabs
27  RED HOT CHILI PEPPERS Guitar Tabs
28  ROLLING STONES Guitar Tabs
29  STONE TEMPLE PILOTS Guitar Tabs
30  U2 Guitar Tabs
31.  VAN HALEN Guitar Tabs
32.  WEEZER Guitar Tabs