Guitar Resources


Adams Song100correct (By BLINK 182)
 
                                                                                               -------------------------------------------------------------------------------
                   Adam's Song(100% correct) - Blink 182
-------------------------------------------------------------------------------

By:Terry (tehwy@hotmail.com)
	
tune your guitar down a full step.
In the recorded version of this song there are 5! guitars!. The fifth one
being tuned down a full step while in dropped D.(believe me i have the book.)

Intro  (remember to tune down a full step)(let ring)(with mid-distortion)
d|---------------------------------------------------------------------------|
A|---------------------------------------------------------------------------|
F|---------------------------------------------------------------------------|
C|-----4--------4-------4------4-------4------4------4------4----------------|
G|---2--------2-------0------0-------3------3--------------------------X2----|
D|------0--------0-------0------0-------0------0---0--0---0--0---------------|

Verse P.M.
d|---------------------------------------------------------------------------|
A|---------------------------------------------------------------------------|
F|---------------------------------------------------------------------------|
C|---44444444----------------------------------------------------------------|
G|---55555555----55555555----99999999----55555555-----------------X4---------|
D|---------------33333333----77777777----33333333----------------------------|

Pre-chorus (let ring)
d|---------------------------------------------------------------------------|
A|---------------------------------------------------------------------------|
F|------0------0------0------0-----------------------------------------------|
C|----7------7------9------9------4-0----4-0----4-0----4--0---------X4-------|
G|--5------5------7------7------2------2-------------------------------------|
D|----------------------------------------------------3------3---------------|

Chorus
d|---------------------------------------------------------------------------|
A|---------------------------------------------------------------------------|
F|--77777777----99999999\\\\44444444-----------------------------------------|
C|--77777777----99999999\\\\44444444----55555555-----------------------------|
G|--55555555----77777777\\\\22222222----55555555---------X2(P.M.)-X2---------|
D|--------------------------------------------------------------33333333-----|

Interlude(ok im to lazy to write the real interlude cuz its 4 pages long,
but i will give you how Tom plays it live.)
d|---------------------------------------------------------------------------|
A|---------------------------------------------------------------------------|
F|------0-------------------------------------7------------------------------|
C|----4----Xa whole bunch------0---right at the end--------------------------|
G|--5---------------------------------5--------------------------------------|
D|---------------------------------------------------------------------------|

-------------------------------------------------------------------------------  
Guitar Tabs FROM THE TOP 60 ARTISTS
1.  AC/DC Guitar Tabs
2.  AEROSMITH Guitar Tabs
3.  ALANIS MORISSETTE Guitar Tabs
4.  BEATLES Guitar Tabs
5.  BLINK 182 Guitar Tabs
6.  BOB DYLAN Guitar Tabs
7.  BOB MARLEY Guitar Tabs
8.  BUSH Guitar Tabs
9.  COLDPLAY Guitar Tabs
10.  DAVE MATTHEWS Guitar Tabs
11.  ERIC CLAPTON Guitar Tabs
12.  GRATEFUL Dead Guitar Tabs
13.  GREEN DAY Guitar Tabs
14.  IRON MAIDEN Guitar Tabs
15.  JACK JOHNSON Guitar Tabs
16.  JIMI HENDRIX Guitar Tabs
17.  JOHN MAYER Guitar Tabs
18.  JOHNNY CASH Guitar Tabs
19.  LED ZEPPELIN Guitar Tabs
20.  LIMP BIZKIT Guitar Tabs
21.  METALLICA Guitar Tabs
22.  NEIL YOUNG Guitar Tabs
23.  NIRVANA Guitar Tabs
24.  PEARL JAM Guitar Tabs
25.  PINK FLOYD Guitar Tabs
26.  RADIOHEAD Guitar Tabs
27  RED HOT CHILI PEPPERS Guitar Tabs
28  ROLLING STONES Guitar Tabs
29  STONE TEMPLE PILOTS Guitar Tabs
30  U2 Guitar Tabs
31.  VAN HALEN Guitar Tabs
32.  WEEZER Guitar Tabs