Guitar Resources


Adams Song (4) (By BLINK 182)
 
Blink 182
Adam Song
standard tuning
Tabliture created by jacques101404@hotmail.com or	
 We be jake@hotmail.com
	I know these tabs are correct so if anyone has a 
problem, e-mail me so I can explain them to you

e|------------------------------------------------------------
B|------------------------------------------------------------
G|------------------------------------------------------------
D|-----2---------2---------2---------2---------2---------2----
A|--0-----3---0-----3---------3---------3---------3---------3-
E|----------------------3---------3---------1---------1-------

e|-----------------------------------|
B|-----------------------------------|
G|-----------------------------------|
D|-----2--------2--------------------|PLAY 2X
A|--------3--------3-----------------|
E|--0--------1-----------------------|


E|--------------------------------------------------
b|--------------------------------------------------
g|--------------------------------------------------
d|--5--5--5--5--5--5--5--5--------------------------
a|--3--3--3--3--3--3--3--3--3--3--3--3--3--3--3--3--
e|--------------------------1--1--1--1--1--1--1--1--

e|--------------------------------------------------|
B|--------------------------------------------------|
G|--------------------------------------------------|
D|--------------------------------------------------|PLAY 2x
A|--7--7--7--7--7--7--7--7--5--5--5--5--5--5--5--5--|
E|--5--5--5--5--5--5--5--5--3--3--3--3--3--3--3--3--|

e|---------------------------------------
B|---------------------------------------
G|--------0--------0--------0--------0---
D|-----5--------5--------7--------7------
A|--3--------3--------5--------5---------
E|---------------------------------------





e|---------------------------------------------|
B|---------------------------------------------|
G|---------------------------------------------|
D|-----------------------2--------2------------|play 2x
A|-----7--------7-----------3--------3---------|
E|--5-----8--5-----8--0--------1---------------|

e|--------------------------------------------------
B|--------------------------------------------------
G|--------------------------------------------------
D|--5--5--5--5--5--5--5--5--7--7--7--7--7--7--7--7--
A|--3--3--3--3--3--3--3--3--5--5--5--5--5--5--5--5--
E|--------------------------------------------------

e|--------------------------------------------------
B|--------------------------------------------------
G|--------------------------------------------------
D|--------------------------------------------------
A|--7--7--7--7--7--7--7--7---3--3--3--3--3--3--3--3-
E|--5--5--5--5--5--5--5--5---1--1--1--1--1--1--1--1-

e|------------------------------------------------------------
B|------------------------------------------------------------
G|------------------------------------------------------------
D|-----2---------2---------2---------2---------2---------2----
A|--0-----3---0-----3---------3---------3---------3---------3-
E|----------------------3---------3---------1---------1-------

e|-----------------------------------|
B|-----------------------------------|
G|-----------------------------------|
D|-----2--------2--------------------|PLAY 2X
A|--------3--------3-----------------|
E|--0--------1-----------------------|

E|--------------------------------------------------
b|--------------------------------------------------
g|--------------------------------------------------
d|--5--5--5--5--5--5--5--5--------------------------
a|--3--3--3--3--3--3--3--3--3--3--3--3--3--3--3--3--
e|--------------------------1--1--1--1--1--1--1--1--

e|--------------------------------------------------|
B|--------------------------------------------------|
G|--------------------------------------------------|
D|--------------------------------------------------|PLAY 2x
A|--7--7--7--7--7--7--7--7--5--5--5--5--5--5--5--5--|
E|--5--5--5--5--5--5--5--5--3--3--3--3--3--3--3--3--|

e|--------------------------------------------------
B|--------------------------------------------------
G|--------------------------------------------------
D|--5--5--5--5--5--5--5--5--7--7--7--7--7--7--7--7--repeat 3x
A|--3--3--3--3--3--3--3--3--5--5--5--5--5--5--5--5--then play
E|--------------------------------------------------

e|--------------------------------------------------|
B|--------------------------------------------------|
G|--------------------------------------------------|
D|--------------------------------------------------|
A|--7--7--7--7--7--7--7--7--3--3--3--3--3--3--3--3--|
E|--5--5--5--5--5--5--5--5--1--1--1--1--1--1--1--1--|
   repeat that 12x during the piano part which goes behind
   this and end with this.
			

	this is it.
Guitar Tabs FROM THE TOP 60 ARTISTS
1.  AC/DC Guitar Tabs
2.  AEROSMITH Guitar Tabs
3.  ALANIS MORISSETTE Guitar Tabs
4.  BEATLES Guitar Tabs
5.  BLINK 182 Guitar Tabs
6.  BOB DYLAN Guitar Tabs
7.  BOB MARLEY Guitar Tabs
8.  BUSH Guitar Tabs
9.  COLDPLAY Guitar Tabs
10.  DAVE MATTHEWS Guitar Tabs
11.  ERIC CLAPTON Guitar Tabs
12.  GRATEFUL Dead Guitar Tabs
13.  GREEN DAY Guitar Tabs
14.  IRON MAIDEN Guitar Tabs
15.  JACK JOHNSON Guitar Tabs
16.  JIMI HENDRIX Guitar Tabs
17.  JOHN MAYER Guitar Tabs
18.  JOHNNY CASH Guitar Tabs
19.  LED ZEPPELIN Guitar Tabs
20.  LIMP BIZKIT Guitar Tabs
21.  METALLICA Guitar Tabs
22.  NEIL YOUNG Guitar Tabs
23.  NIRVANA Guitar Tabs
24.  PEARL JAM Guitar Tabs
25.  PINK FLOYD Guitar Tabs
26.  RADIOHEAD Guitar Tabs
27  RED HOT CHILI PEPPERS Guitar Tabs
28  ROLLING STONES Guitar Tabs
29  STONE TEMPLE PILOTS Guitar Tabs
30  U2 Guitar Tabs
31.  VAN HALEN Guitar Tabs
32.  WEEZER Guitar Tabs