Guitar Resources


Adams Song (5) (By BLINK 182)
 
Song: Adam's song
Artist: Blink 182
Tabbed by: Spencer Dumais (mr_melonheado@hotmail.com)
-----------------------------------------------------
This is A variation of Adam's Song that we played in front of our school. 
Arranged for Two Guitars, and bass.


Legend:

PM or ()  - Palm Mute		p - Pulloff		^ - Bend
	/  - Slide Up		h - hammeron
	\  - Slide Down		~ - vibrato

*========================================================================================*
Intro - Guitar 1
E|---------------------------------------------------------------------------------|
B|---------------------------------------------------------------------------------|
G|---------------------------------------------------------------------------------|
D|-----4-0------4-0------4-0-----4-0------4-0-----4-0------4-0-----4-0-------------| X 2
A|--2--------2--------0-------0----------------------------------------------------|
E|-------------------------------------3-------3--------0-------3------------------|

Intro - Guitar 2
E|---------------------------------------------------------------------------------|
B|---------------------------------------------------------------------------------|
G|---------------------------------------------------------------------------------|
D|-----4-0-0-----4-0-0-----4-0-0----4-0-0-----4-0-0----4-0-0-----4-0-0----4-0-0----| X 2
A|--2---------2---------0--------0-------------------------------------------------|
E|------------------------------------------3--------3---------0--------3----------|

Intro - Bass
G|---------------------------------------------------------------------------------|
D|-----4-0------4-0------4-0-----4-0------4-0-----4-0------4-0-----4-0-------------| 
A|--2--------2--------0-------0----------------------------------------------------| X 2
E|-------------------------------------3-------3--------0-------3------------------|

*=======================================================================================*

Verse 1 - Clean - Guitar 1
PM.......................................
E------------------------------------------|
B------------------------------------------|
G--55555555------------22222222------------|
D--55555555--33333333--22222222--33333333--| X 4
A--33333333--33333333--00000000--33333333--|
E------------11111111------------11111111--|
  ..I never thought...

Verse 1 - Distortion - Guitar 2
E|---------------------------------------------------------------------------------------------------------|
B|---------------------------------------------------------------------------------------------------------|
G|---------------------------------------------------------------------------------------------------------|
D|--------5---------5------5--------------------------------2-------2-----2--------------------------------| X 4
A|--(3-3)----(3-3)-----(3)-------------3------3----3--(0-0)---(0-0)---(0)----------3-------3------3--------|
E|------------------------------(1-1)---(1-1)---(1)--------------------------(1-1)----(1-1)----(1)---------|

Verse 1 - Bass
G|------------------------------------------|
D|------------------------------------------|
A|--33333333------------00000000------------| X 4
E|------------11111111------------11111111--|

*=======================================================================================*

Bridge - Clean - Guitar 1&2

E|------------------------------------------------------------------|
B|------------------------------------------------------------------|
G|------0------0------0------0--------------------------------------|
D|----7------7------9------9------4-0----4-0-----4-0----4-0---------| X 2
A|--5------5----/-7------7-----\-2------2---------------------------|
E|---------------------------------------------0------0-------------|

NO BASS

*=======================================================================================*

Verse 2 - Clean - Guitar 1
Lighty Palm mute
    ......................................
E|------------------------------------------|
B|------------------------------------------|
G|--55555555--77777777--22222222------------|
D|--55555555--77777777--22222222--33333333--| X 2
A|--33333333--55555555--00000000--33333333--|
E|--------------------------------11111111--|
....I never conquered...

Verse 2 - Distorted - Guitar 2

E|-----------------------------------------------------------------------------------------------------|
B|-----------------------------------------------------------------------------------------------------|
G|-----------------------------------------------------------------------------------------------------|
D|--------5-------5-----5-------7-------7-----7--------2-------2-----2---------------------------------| X 2
A|--(3-3)---(3-3)---(3)---(5-5)---(5-5)---(5)----(0-0)---(0-0)---(0)----------3-------3-------3--------|
E|----------------------------------------------------------------------(1-1)---(1-1)---(1)------------|

Verse 2 - Bass

G|------------------------------------------|
D|------------------------------------------|
A|--33333333--55555555--00000000------------| X 2
E|--------------------------------11111111--|

*=======================================================================================*

Chorus - Distortion - Guitars 1&2

E|------------------------------------------|
B|------------------------------------------|
G|--55555555--77777777--22222222------------| X 2
D|--55555555--77777777--22222222--33333333--|
A|--33333333--55555555--00000000--33333333--|
E|--------------------------------11111111--|
....Outside the world.....

Chorus - Bass

G|------------------------------------------|
D|------------------------------------------|
A|--33333333--55555555--00000000------------| X 2
E|--------------------------------11111111--|

*=======================================================================================*

Bridge 2(Intro) - Guitar 1

E|---------------------------------------------------------------------------------|
B|---------------------------------------------------------------------------------|
G|---------------------------------------------------------------------------------|
D|-----4-0------4-0------4-0-----4-0------4-0-----4-0------4-0-----4-0-------------| X 2
A|--2--------2--------0-------0----------------------------------------------------|
E|-------------------------------------3-------3--------0-------3------------------|

Intro - Guitar 2
E|---------------------------------------------------------------------------------|
B|---------------------------------------------------------------------------------|
G|---------------------------------------------------------------------------------|
D|-----4-0-0-----4-0-0-----4-0-0----4-0-0-----4-0-0----4-0-0-----4-0-0----4-0-0----| X 2
A|--2---------2---------0--------0-------------------------------------------------|
E|------------------------------------------3--------3---------0--------3----------|

Intro - Bass
G|---------------------------------------------------------------------------------|
D|-----4-0------4-0------4-0-----4-0------4-0-----4-0------4-0-----4-0-------------| 
A|--2--------2--------0-------0----------------------------------------------------| X 2
E|-------------------------------------3-------3--------0-------3------------------|

*=======================================================================================*

Verse - Clean - Guitar 1
PM.......................................
E------------------------------------------|
B------------------------------------------|
G--55555555------------22222222------------|
D--55555555--33333333--22222222--33333333--| X 4
A--33333333--33333333--00000000--33333333--|
E------------11111111------------11111111--|
  ..I never thought...

Verse 1 - Distortion - Guitar 2
E|---------------------------------------------------------------------------------------------------------|
B|---------------------------------------------------------------------------------------------------------|
G|---------------------------------------------------------------------------------------------------------|
D|--------5---------5------5--------------------------------2-------2-----2--------------------------------| X 4
A|--(3-3)----(3-3)-----(3)-------------3------3----3--(0-0)---(0-0)---(0)----------3-------3------3--------|
E|------------------------------(1-1)---(1-1)---(1)--------------------------(1-1)----(1-1)----(1)---------|

Verse 1 - Bass
G|------------------------------------------|
D|------------------------------------------|
A|--33333333------------00000000------------| X 4
E|------------11111111------------11111111--|

*======================================================================================*

Bridge - Clean - Guitar 1&2

E|------------------------------------------------------------------|
B|------------------------------------------------------------------|
G|------0------0------0------0--------------------------------------|
D|----7------7------9------9------4-0----4-0-----4-0----4-0---------| X 2
A|--5------5----/-7------7-----\-2------2---------------------------|
E|---------------------------------------------0------0-------------|

NO BASS

*=======================================================================================*

Verse 2 - Clean - Guitar 1
Lighty Palm mute
    ......................................
E|------------------------------------------|
B|------------------------------------------|
G|--55555555--77777777--22222222------------| X 2
D|--55555555--77777777--22222222--33333333--|
A|--33333333--55555555--00000000--33333333--|
E|--------------------------------11111111--|
....I never conquered...

Verse 2 - Distorted - Guitar 2

E|-----------------------------------------------------------------------------------------------------|
B|-----------------------------------------------------------------------------------------------------|
G|-----------------------------------------------------------------------------------------------------|
D|--------5-------5-------5-------7-------7-------7--------2-------2-------2---------------------------| X 2
A|--(3-3)---(3-3)---(3-3)---(5-5)---(5-5)---(5-5)----(0-0)---(0-0)---(0-0)----------3-------3-------3--|
E|----------------------------------------------------------------------------(1-1)---(1-1)---(1-1)----|

Verse 2 - Bass

G|------------------------------------------|
D|------------------------------------------|
A|--33333333--55555555--00000000------------| X 2
E|--------------------------------11111111--|

*=======================================================================================*

Chorus - Distortion - Guitars 1&2

E|------------------------------------------|
B|------------------------------------------|
G|--55555555--77777777--22222222------------| X 2
D|--55555555--77777777--22222222--33333333--|
A|--33333333--55555555--00000000--33333333--|
E|--------------------------------11111111--|
....Outside the world.....

Chorus - Bass

G|------------------------------------------|
D|------------------------------------------|
A|--33333333--55555555--00000000------------| X 2
E|--------------------------------11111111--|

*=======================================================================================*

Interlude - Guitar 1 - Clean

E|------------------------|------------------------|------------------------|
B|------------------------|------------------------|------------------------|
G|-------0--------0-------|-------0--------0-------|-------0--------0-------|
D|----4--------4--------4-|----4--------4--------4-|----4--------4--------4-|
A|-5--------5--------5----|-5--------5--------5----|-5--------5--------5----|
E|------------------------|------------------------|------------------------|

E|------------------------|------------------------|------------------------|
B|------------------------|------------------------|------------------------|
G|-------0----------------|-------0-----0----------|-------0----------------|
D|----4-----0-----0-----0-|----4-----------4-----4-|----4--------4-----0----|
A|-5-----------5-----5----|-5--------5--------5----|-5--------5-----5-----5-|
E|------------------------|------------------------|------------------------|

E|---------------------|------------------|------------------------|
B|---------------------|------------------|------------------------|
G|---------------------|------------------|-------0-----0----------|
D|-------2-----2-----2h|-0-----4--------0-|----4-----------4-----4-|
A|----2----------------|----0--------2----|-5--------5--------5----|
E|-5--------5-----5----|----------5-------|------------------------|

E|------------------------|---------------------|---------------------|
B|------------------------|---------------------|---------------------|
G|-------0----------------|---------------------|----------------0----|
D|----4--------4-----0----|-------2-----2-----2h|-0-----4-----4-------|
A|-5--------5-----5-----5-|----2----------------|----5-----5--------5-|
E|------------------------|-5--------5-----5----|---------------------|

E|------------------------|------------------------|------------------------|
B|------------------------|------------------------|------------------------|
G|-------7--------7-------|-7--------7--------7----|-------7--------7-------|
D|----0--------0--------0-|-------0--------0-----0-|----0--------0--------0-|
A|-5--------5--------5----|----5--------5----------|-5--------5--------5----|
E|------------------------|------------------------|------------------------|

E|------------------------|------------------------|------------------------|
B|------------------------|------------------------|------------------------|
G|-7--------7--------7----|-------7--------7-------|-7--------7--------7----|
D|-------0--------0-----0-|----0--------0--------0-|-------0--------0-----0-|
A|----5--------5----------|-5--------5--------5----|----5--------5----------|
E|------------------------|------------------------|------------------------|

E|------------------------|------------------------|------------------------|
B|------------------------|------------------------|------------------------|
G|-------7--------7-------|-7--------7--------7----|-------7--------7-------|
D|----0--------0--------0-|-------0--------0-----0-|----0--------0--------0-|
A|-5--------5--------5----|----5--------5----------|-5--------5--------5----|
E|------------------------|------------------------|------------------------|

E|------------------------|------------------------|------------------------|
B|------------------------|------------------------|------------------------|
G|-7--------7--------7----|-------7--------7-------|-7--------7--------7----|
D|-------0--------0-----0-|----0--------0--------0-|-------0--------0-----0-|
A|----5--------5----------|-5--------5--------5----|----5--------5----------|
E|------------------------|------------------------|------------------------|

*=======================================================================================*

Outro - Distortion -Guitars 1&2 
E|------------------------------------------|
B|------------------------------------------|
G|--55555555--77777777--22222222------------| X 5
D|--55555555--77777777--22222222--33333333--|
A|--33333333--55555555--00000000--33333333--|
E|--------------------------------11111111--|

*=======================================================================================*

End On
E|---||
B|---||
G|---||
D|-5-||
A|-3-||
E|-3-||

*=======================================================================================*

Order-
Intro
Verse 1
Bridge
Verse 2
Chorus
Intro
Verse 1
Bridge
Verse 2
Chorus
Interlude
Corus
End
Guitar Tabs FROM THE TOP 60 ARTISTS
1.  AC/DC Guitar Tabs
2.  AEROSMITH Guitar Tabs
3.  ALANIS MORISSETTE Guitar Tabs
4.  BEATLES Guitar Tabs
5.  BLINK 182 Guitar Tabs
6.  BOB DYLAN Guitar Tabs
7.  BOB MARLEY Guitar Tabs
8.  BUSH Guitar Tabs
9.  COLDPLAY Guitar Tabs
10.  DAVE MATTHEWS Guitar Tabs
11.  ERIC CLAPTON Guitar Tabs
12.  GRATEFUL Dead Guitar Tabs
13.  GREEN DAY Guitar Tabs
14.  IRON MAIDEN Guitar Tabs
15.  JACK JOHNSON Guitar Tabs
16.  JIMI HENDRIX Guitar Tabs
17.  JOHN MAYER Guitar Tabs
18.  JOHNNY CASH Guitar Tabs
19.  LED ZEPPELIN Guitar Tabs
20.  LIMP BIZKIT Guitar Tabs
21.  METALLICA Guitar Tabs
22.  NEIL YOUNG Guitar Tabs
23.  NIRVANA Guitar Tabs
24.  PEARL JAM Guitar Tabs
25.  PINK FLOYD Guitar Tabs
26.  RADIOHEAD Guitar Tabs
27  RED HOT CHILI PEPPERS Guitar Tabs
28  ROLLING STONES Guitar Tabs
29  STONE TEMPLE PILOTS Guitar Tabs
30  U2 Guitar Tabs
31.  VAN HALEN Guitar Tabs
32.  WEEZER Guitar Tabs