Guitar Resources


Adams Song (8) (By BLINK 182)
 
Adam's Song By Blink 182 

Ca devrait etre pas mal si vs avez des suggestions allez y !
nicolasbredard@hotmail.com

Accords:

        C      F       A      B      G      D     Eii
e---------------------------------------------------------
B---------------------------------------------------------
G-------5---------------------4-------------7------9------
D-------5------3-------7------4------5------7------9------
A-------3------3-------7------2------5------5------7------
E--------------1-------5-------------3--------------------

* Riff 1: jouer 2 fois
e---------------------------------------------------------
B---------------------------------------------------------
D---------------------------------------------------------
G----2-----2-----2-----2-----2-----2-----2-----2----------
A--0---3-0---3-----3-----3-----3-----3-----3-----3--------
E--------------3-----3-----1-----1-----3-----3------------

* 1er couplet: Jouer en étouffant les cordes (muted)

[C]        [F]              [A]
   I never thought,  I die alone

[A]           [F]              [C]
I laughed the loudest who have known?

[C]          [F]              [A]
I traced the chord back to the wall

[A]           [F]                [C]
No wonder was never plugged in at all

  Jouer sur le même modèle:

I took my time I hurried up
The choice was mine I didn t think enough
I'm too depressed to go on
You'll be sorry when Iím gone

 Interlude (x2)
e----------------------------------------------------
B----------------------------------------------------
G----------------------------------------------------
D----7-----7-----7-----7-------2-----2-----2-----2---
A------8-----8-5---8-5---8->-0---3-0---3-----3-----3-
E--8-----8-------------------------------1-----1-----

 ou alors
 
 Interlude (x2)
e----------------------------------------------------
B----------------------------------------------------
G----0-----0-----2-----2-----------------------------
D------3-----3-0---3-0---3----2------2-----2-----2---
A--3-----3-----------------0----3-0----3-----3-----3-
E----------------------------------------1-----1-----

* Refrain 1ère partie: clair (clean)

[C]        [D]             [A]
   I never conquered rarely came

[A]    [F]             
16just held such better days

[C]     [D]         [A]
Days when I Still felt alive

[A]         [F]
We couldn t wait to get out...

* Refrain 2ème partie: Distorsion

[F]             [D]              [Eii]
...side,the world was wide,too late to try

[B]        [G]
The tour was over we d survived

Idem pour:

I couldn t wait till I got home
To pass the time in my room alone

* Riff 1: jouer 2 fois

* 2ème couplet: muted

I never though I'd die alone
Another six month I'll be unknown
Give all my things to all my friends
You'll never step foot in my room again

Youíll close it off board it up
Remember the time that I spilled the cup
Of apple juice in the hall 
Please tell mom this is not her fault

* Interlude

* Refrain 1ère et 2ème partie

* Interlude avec piano

* Dernier Refrain avec Distorsion idem refrain 2éme partie

I never conquered rarely came
Tomorrow hold such better days
Days when I can still feel alive
When I can t wait to get out...

...side the world is wide,The time goes by
The tour is over I ve survived
I can t wait till I get home
To pass the time in my room alone. [C]
Guitar Tabs FROM THE TOP 60 ARTISTS
1.  AC/DC Guitar Tabs
2.  AEROSMITH Guitar Tabs
3.  ALANIS MORISSETTE Guitar Tabs
4.  BEATLES Guitar Tabs
5.  BLINK 182 Guitar Tabs
6.  BOB DYLAN Guitar Tabs
7.  BOB MARLEY Guitar Tabs
8.  BUSH Guitar Tabs
9.  COLDPLAY Guitar Tabs
10.  DAVE MATTHEWS Guitar Tabs
11.  ERIC CLAPTON Guitar Tabs
12.  GRATEFUL Dead Guitar Tabs
13.  GREEN DAY Guitar Tabs
14.  IRON MAIDEN Guitar Tabs
15.  JACK JOHNSON Guitar Tabs
16.  JIMI HENDRIX Guitar Tabs
17.  JOHN MAYER Guitar Tabs
18.  JOHNNY CASH Guitar Tabs
19.  LED ZEPPELIN Guitar Tabs
20.  LIMP BIZKIT Guitar Tabs
21.  METALLICA Guitar Tabs
22.  NEIL YOUNG Guitar Tabs
23.  NIRVANA Guitar Tabs
24.  PEARL JAM Guitar Tabs
25.  PINK FLOYD Guitar Tabs
26.  RADIOHEAD Guitar Tabs
27  RED HOT CHILI PEPPERS Guitar Tabs
28  ROLLING STONES Guitar Tabs
29  STONE TEMPLE PILOTS Guitar Tabs
30  U2 Guitar Tabs
31.  VAN HALEN Guitar Tabs
32.  WEEZER Guitar Tabs