Guitar Resources


Adams Song Full (By BLINK 182)
 
-------------------------------------------------------------------------------
                           ADAM'S SONG - Blink-182
-------------------------------------------------------------------------------


Tabber: Emil
E-Mail: emilgasanov@bezeqint.net


First of all the song is tuned one step down what means that the tuning should be like this:
1=d
2=A
3=F
4=C
5=G
6=D
Secondly i want to thank Craig (craig@nofx.com) for the awesome writing of the Electric Guitar Part 
(And the whole tab himslef - you should check it out because it very accurate) and that i'm using it here, 
DW (blinkthis_182@hotmail.com) that wrote the Acoustic Guitar Part (but very lazy and not so accurate 
though he wrote the part for the second guitar that just fuckin shocked me because it's sounds so good 
and nobody else write it before - you should check it too, and he gave me a base to start from writing 
it myself and timing it) that i'm also using it here but in corrected version, and about the piano part 
i want to thank Phil Brown for also giving me a base to write it correctly. The tabs of Craig and DW 
can be found in WWW.PUNKHARDCORE.COM.
Actually what i did here is just gathering small parts from tabs and put them in one good reliable tab 
that suposed to be correct as posible. This is my first tab ever and i hope that you will enjoy it and 
correct me or comment about something that wrong on the tab. Thanx.


BLINK 182 IS THE BEST PUNK BAND EVER!!!


Electric Guitar Part 
--------------------
This is the electric guitar part that played probably by Tom Mathew Delonge with his green Fender Stratocaster. 
I'm really not sure about it because i didn't actually tab this part but i think who tab it probably 
knew what he doing. If you think that it's crap then just play the first part that you should play 3 times, 
but play it now 16 times instead of the other notes.(The notes that you think they are crap).


d|-------------------|         |-----------------|-----------------|-----------------|
A|-------------------|         |-----------------|-----------------|-----------------|
F|-----0------0------| x3      |-----0-----------|-----0---0-------|-----0-----------|
C|---4------4------4-|         |---4---0---0---0-|---4-------4---4-|---4-----4---0---|
G|-5------5------5---|         |-5-------5---5---|-5-----5-----5---|-5-----5---5---5-|
D|-------------------|         |-----------------|-----------------|-----------------|


d|-----------------|--------------|---------------|-----------------|----------------|
A|-----------------|--------------|---------------|-----------------|----------------|
F|-----------------|--------------|-----0---0-----|-----0-----------|----------------|
C|-----2----2---2--|-0---4------0-|---4-------4---|---4-----4---0---|-----2----2---2-|
G|---2-------------|---0------2---|-5-----5-----5-|-5-----5---5---5-|---2------------|
D|-5------5---5----|--------5-----|---------------|-----------------|-5------5---5---|


d|--------------|-----------------|------------------|----------------|----------------| 
A|--------------|-----------------|------------------|----------------|----------------|    
F|--------------|-----0---0-------|-----0------------|----------------|-----------0----|   
C|-0---4------0-|---4-------4---4-|---4------4---0---|-----2----2---2-|-0---4---4------|  
G|---0------2---|-5-----5-----5---|-5------5---5---5-|---2------------|---5---5------5-|    
D|--------5-----|-----------------|------------------|-5------5---5---|----------------|         


           d|-----------------|-----------------|
           A|-----------------|-----------------|
Play it 4x F|-----7-----7-----|-7-----7-----7---|
           C|---0-----0-----0-|-----0-----0---0-|                                                          
           G|-5-----5-----5---|---5-----5-------|
           D|-----------------|-----------------|


Acoustic Guitar Part
--------------------
This is the acoustic guitar part that played for the first 9 measures of the bridge. 
This the only part that i'm sure that everything is 100% right and if you don't so screw you!


       d|2-------|--------|--------|2-------|2-------|--------|--------|2-------|--------|
       A|--------|3-------|------3-|----3---|--------|3-------|------3-|----3---|3-------|
       F|--------|--------|2-------|------2-|--------|--------|2-------|------2-|--Piano-|
       C|--------|--------|--------|--------|--------|--------|--------|--------|--Solo--|
       G|--------|--------|--------|--------|--------|--------|--------|--------|--------|
       D|--------|--------|--------|--------|--------|--------|--------|--------|--------|                             
Timing: 2:49     2:50.75  2:52.5   2:54.25  2:56     2:57.75  2:59.5   3:01.25  3:03    


Piano Solo 
----------
This is the piano part that also played along with what Tom playing for the last 9 measures of the bridge.
(Actualy if you listen you can hear that the piano playing also after the 9 measures but only as a back 
sound not as a solo). 
The notes in () saying that either they really excist or it's just an echo of the piano and they don't 
excist - it's very hard to say what is right but you can choose yourself what sounds better to you.


d|-------------------------------15-(15)-(15)-14-(14)-(14)-(14)-(14)---------------------------
A|------15-17-15-----15-17-15---------------------------------------15-----15-17-------15-17---
F|--14----------14-------------------------------------------------------14------12--14-----14-
C|---------------------------------------------------------------------------------------------
G|---------------------------------------------------------------------------------------------
D|---------------------------------------------------------------------------------------------


d|-------14-(14)-(14)-15-(15)-(15)-(15)-17---|
A|-15----------------------------------------|
F|---14--------------------------------------|
C|-------------------------------------------|
G|-------------------------------------------|
D|-------------------------------------------|



Cheers
-------------------------------------------------------------------------------
Guitar Tabs FROM THE TOP 60 ARTISTS
1.  AC/DC Guitar Tabs
2.  AEROSMITH Guitar Tabs
3.  ALANIS MORISSETTE Guitar Tabs
4.  BEATLES Guitar Tabs
5.  BLINK 182 Guitar Tabs
6.  BOB DYLAN Guitar Tabs
7.  BOB MARLEY Guitar Tabs
8.  BUSH Guitar Tabs
9.  COLDPLAY Guitar Tabs
10.  DAVE MATTHEWS Guitar Tabs
11.  ERIC CLAPTON Guitar Tabs
12.  GRATEFUL Dead Guitar Tabs
13.  GREEN DAY Guitar Tabs
14.  IRON MAIDEN Guitar Tabs
15.  JACK JOHNSON Guitar Tabs
16.  JIMI HENDRIX Guitar Tabs
17.  JOHN MAYER Guitar Tabs
18.  JOHNNY CASH Guitar Tabs
19.  LED ZEPPELIN Guitar Tabs
20.  LIMP BIZKIT Guitar Tabs
21.  METALLICA Guitar Tabs
22.  NEIL YOUNG Guitar Tabs
23.  NIRVANA Guitar Tabs
24.  PEARL JAM Guitar Tabs
25.  PINK FLOYD Guitar Tabs
26.  RADIOHEAD Guitar Tabs
27  RED HOT CHILI PEPPERS Guitar Tabs
28  ROLLING STONES Guitar Tabs
29  STONE TEMPLE PILOTS Guitar Tabs
30  U2 Guitar Tabs
31.  VAN HALEN Guitar Tabs
32.  WEEZER Guitar Tabs