Guitar Resources


Aliens Exist (2) (By BLINK 182)
 
Date: Mon, 7 May 2001 00:48:43 -0400
From: Leigh Horton <l.horton@student.murdoch.edu.au>
Subject: b/blink_182/aliens_exist.tab

Blink 182
Aliens Exist
>From Emema of the state
TABBED by Jesus

Drop-D Tuning
Palm mute==  |^^^|

Here it is
Intro
        |^^^^^^^^^^^^^^^^|  Let Ring out
------------------------------
------------------------------
----------------------------4-
----------------------------4-
---------2222222222222222---2-
------------------------------
			Hey mom theres...
Pickslide Then
RIFF A 
---------------------------------
---------------------------------
-4--4-4-4--4---4-----------------
-4--4-4-4--4---4--2-2--2--2-2--2-
-2--2-2-2--2---2--2-2--2--2-2--2-
------------------2-2--2--2-2--2-

---------------------------------
---------------------------------
---------------------------------
-6-6-6-6--6-6--6--2-2--2--2-2--2-
-6-6-6-6--6-6--6--2-2--2--2-2--2-
-6-6-6-6--6-6--6--2-2--2--2-2--2-

VERSE
RIFF B 
|^^^^^^^^^^^^^^^^^^^^^^^^^^^^^^^^^|
-----------------------------------
-----------------------------------
-----------------------------------
-----------------------------------
--222222---------------------------
--------44444444-66666666-22222222-
What if people knew that these were real...

RIFF C
|^^^^^^^^^^^^^^^^^^^^^^^^^^^^^^^^^^^|
-------------------------------------
-------------------------------------
-------------------------------------
-------------------------------------
--22222222-44444444------------------
-------------------66666666-22222222-
I know the CIA would say...

CHORUS
RIFF D
------------------------------------------------
------------------------------------------------
-4-444444-4-44444-------------------------------
-4-444444-4-44444----4-444444-4-44444-----------
-2-222222-2-22222----4-444444-4-44444-----------
---------------------4-444444-4-44444-----------
Up all night long...

RIFF E 
|^^^^^^^^^^^^^^^^^^^^^^^^^^^|
-----------------------------
-----------------------------
-----------------------------
-----------------------------
-222---222---222---222---222-
-----------------------------
And I know it must be late...

RIFF F
------------------------------------------------
------------------------------------------------
------------------------------------------------
------------------------------------------------
----------------------2-------------------------
--4---------2--------------------4---------2----
I'm not like you guys...

Bridge
RIFF G x????
--------------------
--------------------
--4-4-4-4-4-4-4-4---
--x-x-x-x-x-x-x-x---
--2-2-2-2-2-2-2-2---
--------------------

RIFF H
------------------------------------------------
------------------------------------------------
--8--8--8-8-8-8-8--8--8-8-8-8-86--6-6-6-6-6-6-6
--x--x--x-x-x-x-x--x--x-x-x-x-x----x-x-x-x-x-x-x
--6--6--6-6-6-6-6--6--6-6-6-6-64--4-4-4-4-4-4-4
------------------------------------------------

------------------------------------------------
------------------------------------------------
-6-6-6-6-6-6-6/9-9-9--9-9-9--9-9-9-9-9-9-98----
-x-x-x-x-x-x-x---x-x--x-x-x--x-x-x-x-x-x-x------
-4-4-4-4-4-4-4/7-7-7--7-7-7--7-7-7-7-7-7-76----
------------------------------------------------

-------------------------
-------------------------
-8-8-8--8-8--8--8-8-8--6-
-x-x-x--x-x--x--x-x-x--x-
-6-6-6--6-6--6--6-6-6--4-
-------------------------

RIFF I
------------------------------------------------
------------------------------------------------
------------------------------------------------
-6--6-6-6--6-6--6-6-6--6--4--4-4-4--4--4-4-4--4-
-6--6-6-6--6-6--6-6-6--6--4--4-4-4--4--4-4-4--4-
-6--6-6-6--6-6--6-6-6--6--4--4-4-4--4--4-4-4--4-
Dark and scary, ordinary
------------------------------------------------
------------------------------------------------
-----------------------------4--4-4-4--4--------
-2--2-2-2--2--2--2--2-2-2--2-4--4-4-4--4--------
-2--2-2-2--2--2--2--2-2-2--2-2--2-2-2--2--------
-2--2-2-2--2--2--2--2-2-2--2--------------------
Explanation, Information
Outro
------------------------------------------------
------------------------------------------------
----------9--------4----------------------------
-4--------9--------4----------------------------
-4--------7--------2----------------------------
-2----------------------------------------------
I'm not like you guys

STRUCTURE
Intro
Pickslide
RIFF A 
RIFF B x2
RIFF C 
RIFF B 
RIFF D x2
RIFF E x3
RIFF F
RIFF A 
RIFF B x2
RIFF C 
RIFF B 
RIFF D x2
RIFF E x3
RIFF F
RIFF A 
RIFF B x2
RIFF C 
RIFF B 
RIFF D x2
RIFF E x3
RIFF F
RIFF G x??
RIFF H
RIFF I x2 
RIFF D x2
RIFF E x3
Outro x2

This is the basic TAB and there are a few small
things missing but play it like this and it sounds
good, any faults and criticisms or praise direct it to 
L.Horton@student.murdoch.edu.au
Guitar Tabs FROM THE TOP 60 ARTISTS
1.  AC/DC Guitar Tabs
2.  AEROSMITH Guitar Tabs
3.  ALANIS MORISSETTE Guitar Tabs
4.  BEATLES Guitar Tabs
5.  BLINK 182 Guitar Tabs
6.  BOB DYLAN Guitar Tabs
7.  BOB MARLEY Guitar Tabs
8.  BUSH Guitar Tabs
9.  COLDPLAY Guitar Tabs
10.  DAVE MATTHEWS Guitar Tabs
11.  ERIC CLAPTON Guitar Tabs
12.  GRATEFUL Dead Guitar Tabs
13.  GREEN DAY Guitar Tabs
14.  IRON MAIDEN Guitar Tabs
15.  JACK JOHNSON Guitar Tabs
16.  JIMI HENDRIX Guitar Tabs
17.  JOHN MAYER Guitar Tabs
18.  JOHNNY CASH Guitar Tabs
19.  LED ZEPPELIN Guitar Tabs
20.  LIMP BIZKIT Guitar Tabs
21.  METALLICA Guitar Tabs
22.  NEIL YOUNG Guitar Tabs
23.  NIRVANA Guitar Tabs
24.  PEARL JAM Guitar Tabs
25.  PINK FLOYD Guitar Tabs
26.  RADIOHEAD Guitar Tabs
27  RED HOT CHILI PEPPERS Guitar Tabs
28  ROLLING STONES Guitar Tabs
29  STONE TEMPLE PILOTS Guitar Tabs
30  U2 Guitar Tabs
31.  VAN HALEN Guitar Tabs
32.  WEEZER Guitar Tabs