Guitar Resources


All The Small Things (5) (By BLINK 182)
 
Blink-182-All The Small Things
Made by Nate
bllbong90@hotmail.com
Firt Tab
Whole Song Clean




Pre Intro                       Intro (Play Twice)    
                                                       
                                                       P.M.-----|
|--------| |----------------------------------------------------------|
|--------| |--------------6666-6666-----------------------------------|
|--------| |-5555-5555----5555-5555-----------------------------------| 
|--5--3--| |-5555-5555----3333-3333----5555-5555----5--------------333|
|--5--3--| |-3333-3333-----------------5555-5555----5--0--0--0--0--333|
|--3--1--| |---------------------------3333-3333----3--------------111|


Verse 1 

   P.M.-------------------------------------------|
|--------------------------------------------------
|--------------------------------------------------
|-------------------------------------------------- (Play Three Times)
|--5555-5555---------------------------------------
|--3333-3333----5555-5555----3333-3333----5555-5555
|---------------3333-3333----1111-1111----3333-3333
  
   P.M.-------------------------------------------|
--------------------------------------------------------|
--------------------------------------------------------|
------------------------------------------------------55| (Play Once)  
--5555-5555-------------------------------------------55|
--3333-3333----5555-5555----3333-3333----5555-5555----33|
---------------3333-3333----1111-1111----3333-3333------|


Chorus

|--------------------------------------------------|
|--------------------------------------------------|
|--5555-5555----5555-5555--------------------------|   (Play Twice)
|--5555-5555----5555-5555----5555-5555----3333-3333|
|--3333-3333----3333-3333----5555-5555----3333-3333|
|----------------------------3333-3333----1111-1111|


Intro (Play Twice)

                                            P.M.-----|
|----------------------------------------------------------|
|--------------6666-6666-----------------------------------|
|-5555-5555----5555-5555-----------------------------------| 
|-5555-5555----3333-3333----5555-5555----5--------------333|
|-3333-3333-----------------5555-5555----5--0--0--0--0--333|
|---------------------------3333-3333----3--------------111|


Verse 2

   P.M.--------------------------------------------|
|--------------------------------------------------
|--------------------------------------------------
|--------------------------------------------------  (Play Three Times)
|--5555-5555---------------------------------------
|--3333-3333----5555-5555----3333-3333----5555-5555
|---------------3333-3333----1111-1111----3333-3333

   P.M.-------------------------------------------------|
|--------------------------------------------------------|
|--------------------------------------------------------|
|--------------------------------------------------------|  (Play Once)
|--5555-5555-------------------------------------------55|
|--3333-3333----5555-5555----3333-3333----5555-5555----55|
|---------------3333-3333----1111-1111----3333-3333----33|


Chorus 2


|--------------------------------------------------|
|--------------------------------------------------|
|--5555-5555----5555-5555--------------------------|  (Play 2 Times)
|--5555-5555----5555-5555----5555-5555----3333-3333|
|--3333-3333----3333-3333----5555-5555----3333-3333|
|----------------------------3333-3333----1111-1111|



Intro (Play Twice)

                                            P.M.-----|                                         
|--------------6666-6666-----------------------------------|
|-5555-5555----5555-5555-----------------------------------|
|-5555-5555----3333-3333----5555-5555----5--------------333|
|-3333-3333-----------------5555-5555----5--0--0--0--0--333|
|---------------------------3333-3333----3--------------111|


Chorus 3


|--------------------------------------------------|
|--------------------------------------------------|
|--5555-5555----5555-5555--------------------------|  (Play Four Times)
|--5555-5555----5555-5555----5555-5555----3333-3333|
|--3333-3333----3333-3333----5555-5555----3333-3333|
|----------------------------3333-3333----1111-1111|





The End


BLINK-182 ROCK!!!!!
Guitar Tabs FROM THE TOP 60 ARTISTS
1.  AC/DC Guitar Tabs
2.  AEROSMITH Guitar Tabs
3.  ALANIS MORISSETTE Guitar Tabs
4.  BEATLES Guitar Tabs
5.  BLINK 182 Guitar Tabs
6.  BOB DYLAN Guitar Tabs
7.  BOB MARLEY Guitar Tabs
8.  BUSH Guitar Tabs
9.  COLDPLAY Guitar Tabs
10.  DAVE MATTHEWS Guitar Tabs
11.  ERIC CLAPTON Guitar Tabs
12.  GRATEFUL Dead Guitar Tabs
13.  GREEN DAY Guitar Tabs
14.  IRON MAIDEN Guitar Tabs
15.  JACK JOHNSON Guitar Tabs
16.  JIMI HENDRIX Guitar Tabs
17.  JOHN MAYER Guitar Tabs
18.  JOHNNY CASH Guitar Tabs
19.  LED ZEPPELIN Guitar Tabs
20.  LIMP BIZKIT Guitar Tabs
21.  METALLICA Guitar Tabs
22.  NEIL YOUNG Guitar Tabs
23.  NIRVANA Guitar Tabs
24.  PEARL JAM Guitar Tabs
25.  PINK FLOYD Guitar Tabs
26.  RADIOHEAD Guitar Tabs
27  RED HOT CHILI PEPPERS Guitar Tabs
28  ROLLING STONES Guitar Tabs
29  STONE TEMPLE PILOTS Guitar Tabs
30  U2 Guitar Tabs
31.  VAN HALEN Guitar Tabs
32.  WEEZER Guitar Tabs