Guitar Resources


All The Small Things (By BLINK 182)
 
All the small things
Blink 182
Tabed By: rcodonovan@hotmail.com (Rob O'donovan)

e|-----------------------------------------------------------
b|-----------------------------------------------------------
g|------------5555555---10 10-10-10-10-10-10-----------------
d|-5-3--------5555555---10 10-10-10-10-10-10--5555555--------
a|-5-3--------3333333---8-- 8- 8 -8--8--8- 8--5555555--------
e|-3-1--------------------------------------  3333333--------

|-----------------------
|-----------------------
|-----------------------
|-3-x-x-x-33------------
|-3-x-x-x-33------------
|-1-x-x-x-11------------

That was the intro repeat this 2 times

Do this part with light palming

All the small things...
|---------------------------------------
|---------------------------------------
|----5555555-----------------------------
|----5555555--5555555--3333333-5555555---
|----3333333--5555555--3333333-5555555---
|-------------3333333--1111111-3333333---

Repeat this 4x

Say it ant so...

|-------
|-------
|----5--
|----5--  <-----Let this ring
|----3--
|-------

Na,na, na....

|-----------------------------
|-----------------------------
|---5555555555-----------------
|---5555555555--555555-33333---
|---3333333333--555555-33333---
|---------------333333-11111---

After this part, play the beginning again, from there the
song just repeats


_____________________________________________________________________________




All The Small things - Bass Tabs - www.jcblink182.fr.st


x means pick scrape
h means hammer on

The first 2 notes are:
E:--3h1-------------------------------------------

RIFF #1
G:------------------------------------------------
D:----------33332222------------------------------
A:-33333333---------------------------------------
E:-------------------333333333--xxxx--11----------

RIFF #2
G:------------------------------------------------
D:------------------------------------------------
A:-33333333---------------------------------------
E:----------33333333-11111111-33333333------------

RIFF #3
G:------------------------------------------------
D:------------------------------------------------
A:-3333333333333333-------------------------------
E:------------------333333333-11111111------------

*Order*
First 2 notes
Riff 1 x 2
Riff 2 x 2
Riff 3 x 3
(no bass for a little bit)
Riff 3 x 4

That is correct, im not completely sure about Riff #1, it sounds good though.


Correction by Rafs:

Outro:
g-----------------
d-----------------
a--3--------------
e---------1---3---




Music X Tabs/ Bass Tabs/ B/ Blink 182/ All The Small Things | Not Rated   

Read the Comments on This Tab
Rate/Comment On This Tab


Music X Tabs [http://www.mxtabs.net]
Band: Blink 182
Song: All The Small Things
Tabbed by: Jim


Riff 1:
G|------------------------------------------------------------------------|
D|------------------------------------------------------------------------|
A|-3-3-3-3-3-3-3-3-3-3-3-3-3-3-3-3----------------------------------------|
E|---------------------------------3-3-3-3-3-3-3-3-5-5-5-5-5-5-5-5-1-1--1-|

Riff 2:
G|-----------------------------------------------------------------|
D|-----------------------------------------------------------------|
A|-3-3-3-3-3-3-3-3-------------------------------------------------|
E|-----------------3-3-3-3-3-3-3-3-1-1-1-1-1-1-1-1-3-3-3-3-3-3-3-3-|

Riff 3:
G|---------------------------------|
D|---------------------------------|
A|-3--3-3--3--3-3------------------|
E|-----------------3--3-3--1--1-1--|

Riff 4:
G|-----------------------------------------------------------------|
D|-----------------------------------------------------------------|
A|-3-3-3-3-3-3-3-3-3-3-3-3-3-3-3-3---------------------------------|
E|---------------------------------3-3-3-3-3-3-3-3-1-1-1-1-1-1-1-1-|

Riff 5:
G|-----------------------------------------|
D|-----------------------------------------|
A|-3---------------------------------------|
E|-------------------1----------3----------|

Riff 6:
G|-------------------------------------------------|
D|-------------------------------------------------|
A|-3-3-3-3-3-3-3-3-3-3-3-3-3-3-3-3-----------------|
E|---------------------------------3-3-3-3-3-3-3-3-|

G|-----------------------------------|
D|-----------------------------------|
A|----------------------------3------|
E|-1-1-1--1-1-1--1-1-1--1-1-1--------|



Song Order:

Riff 1 (x2)
Riff 2 (x4)
Riff 3
Riff 4 (x2)
Riff 1 (x2)
Riff 2 (x2)
Riff 3
Riff 4 (x2)
Riff 5 (x4)
Riff 4 (x3)
Riff 6




     Comments on this Tab : Average Rating : Not Rated 
       No Comments For This Tab 


        
          
_________________________________________________________________________________________________________




Music X Tabs/ Drum Tabs/ B/ Blink 182/ All The Small Things | Not Rated 

Read the Commments on This Tab
Rate/Comment On This Tab


------#
# This file is the author's own work and represents their interpretation #
#       of the song. You may only use this file for private use.         #
#------------------------------------------------------------------------#

ALL THE SMALL THINGS
--------------------
Artist: Blink 182
Album: Enema of the State
Drummer: Travis Barker
Timing: 4/4
Tabbed by: Mike Van Kuiken (vankuiken@usa.net) on 1/19/00


S |----------o-o---|
F |----------o-o---|

Intro                      2x
C |x---x-x-x-x-x-x-|x-x-x-x-x-x-x-x-|x---x-------x---|
t |----------------|----------------|-------o--------| repeat
S |----o-------o---|----o-------o---|----o-o-----o---|   1x
F |----------------|----------------|--------o-------|
B |o-o-----o-o-----|o-o-----o-o-----|o-o-----o-o-----|


Verse 1 (Closed H)         5x
C |x---------------|----------------|----------------|
H |----x-x-x-x-x-x-|x-x-x-x-x-x-x-x-|x-----X---------|
t |----------------|----------------|------------oo--|
S |----o-------o---|----o-------o---|--oooo--o-oo--oo|
B |o-o-----o-o-----|o-o-----o-o-----|o-----o---------|

                           2x                                4x
C |x---------------|----------------|----------------|----------------|
H |----x-x-x-x-x-x-|x-x-x-x-x-x-x-x-|x-x-x-x-x-x---X-|x-x-x-x-x-x-x-x-|
S |----o-------o---|----o-------o---|----o-------o---|----o-------o---|
B |o-o-----o-o-----|o-o-----o-o-----|o-o-----o-o-----|o-o-----o-o-----|


Chorus 1
C |x---------------|----------------|x---------------|----------------|
t |------o---------|--o-o--------o--|------o---------|--o-o--------o--|
S |------------o-o-|--------o---o---|------------o---|--------o---o---|
F |------o-----o---|--o-o---o-----oo|------o-----o---|--o-o---o-----oo|
B |o---o---o---o---|o---o---o---o---|o---o---o---o---|o---o---o---o---|


Post-Chorus                2x
C |x---x-x-x-x-x-x-|x-x-x-x-x-x-x-x-|x-x-x-x-x-------|
S |----o-------o---|----o-------o---|----o-----o-o---|
F |----------------|----------------|----------o-o---|
B |o-o-----o-o-----|o-o-----o-o-----|o-o-----o-----o-|


C |x---x-x-x-x-x-x-|x-x-x-x-x-x-x-x-|x-x-x-x-x-x-x-x-|----------------|
H |----------------|----------------|----------------|----X-----X-----|
t |----------------|----------------|----------------|-o-----o--------|
S |----o-------o---|----o-------o---|----o-------o---|o---o-o---o-oooo|
F |----------------|----------------|----------------|--o-----o-------|
B |o-------o-o-----|o-------o-o-----|o-------o-o---o-|---o-o---o-o----|


Repeat Intro


Verse 2 (Closed H)         2x                                4x
C |x---------------|----------------|----------------|----------------|
H |----x-x-x-x-x-x-|x-x-x-x-x-x-x-x-|x-x-x-x-x-x---X-|x-x-x-x-x-x-x-x-|
S |----o-------o---|----o-------o---|----o-------o---|----o-------o---|
B |o-o-----o-o-----|o-o-----o-o-----|o-o-----o-o-----|o-o-----o-o-----|


Chorus 2
C |x---------------|----------------|x---------------|----------------|
t |------o---------|--o-o--------o--|------o---------|--o-o-------oo--|
S |------------o-o-|--------o---o---|------------o---|--------o-------|
F |------o-----o---|--o-o---o-----oo|------o-----o---|--o-o---o-----oo|
B |o---o---o---o---|o---o---o---o---|o---o---o---o---|o---o---o---o---|


Post-Chorus                2x
C |x---x-x-x-x-x-x-|x-x-x-x-x-x-x-x-|x-x-x-x-x-------|
S |----o-------o---|----o-------o---|----o-----o-o---|
F |----------------|----------------|----------o-o---|
B |o-o-----o-o-----|o-o-----o-o-----|o-o-----o-----o-|


C |x---x-x-x-x-x-x-|x-x-x-x-x-x-x-x-|x-x-x-x-x-x-x-x-|x-x-x-x-x-x-x-x-|
S |----o-------o---|----o-------o---|----o-------o---|----o-------o---|
B |o-------o-o-----|o-o-----o-o-----|o-------o-o-----|o-o-----o-o-----|


Interlude
C |x---------------|----------------|
S |----g-g-g-g-g-g-|O-g-g-g-g-g-g-oo|
B |o---o---o---o---|o---o---o---o---|
                    _________________________________
                   |1.2.3.4.        |5.              |
S |O-g-g-g-g-g-g-g-|O-g-g-g-g-g-g-oo|O-g-g-g-g-g-g-g-|
B |o---o---o---o---|o---o---o---o---|o---o---o---o---|

          3x
t |----------------|------------oo--|
S |OoooOoooOoooOooo|OoooOoooOooo----|
F |----------------|--------------oo|
B |o---o---o---o---|o---o---o---o---|


Chorus 3                   2x
C |x---x-x-x-x-x-x-|x-x-x-x-x-x-x-x-|x-x-x-x-x-------|
S |----o-------o---|----o-------o---|----o-----o-o---|
F |----------------|----------------|----------o-o---|
B |o-o-----o-o-----|o-o-----o-o-----|o-o-----o-----o-|

                           2x
C |x---x-x-x-x-x-x-|x-x-x-x-x-x-x-x-|x-x-x-x-x-------|
S |----o-------o---|----o-------o---|----o-----o-o---|
F |----------------|----------------|----------o-o---|
B |o-------o-o-----|o-o-----o-o-----|o-o-----o-----o-|


C |x---x-x-x-x-x-x-|x-x-x-x-x-x-x-x-|x-x-x-x-x-x-x---|----x-------x---|
t |----------------|----------------|---------------o|-------o--------|
S |----o-------o---|----o-------o---|----o-------o-o-|----o-o-----o---|
F |----------------|----------------|----------------|o-------o-------|
B |o-------o-o-----|o-------o-o-----|o-------o-o-----|o-o-----o-o-----|


C |x---x-x-x-x-x-x-|x-x-x-x-x-x-x-x-|x-x-x-x-x-x-x---|----x-------x---|
t |----------------|----------------|---------------o|-------o-------o|
S |----o-------o---|----o-------o---|----o-------o-o-|----o-o-----o-o-|
F |----------------|----------------|----------------|o-------o-------|
B |o-------o-o-----|o-o-----o-o-----|o-------o-o-----|o-o-----o-o-----|


C |----x-------x---|x---------------|
t |-------o--------|----------------|
S |----o-o-----o---|----------------|
F |o-------o-------|----------------|
B |o-o-----o-o-----|o---------------|

END

Tabbed by: Mike Van Kuiken (vankuiken@usa.net)





     Comments on this Tab :  Average Rating : Not Rated  
  No Comments For This Tab 




Guitar Tabs FROM THE TOP 60 ARTISTS
1.  AC/DC Guitar Tabs
2.  AEROSMITH Guitar Tabs
3.  ALANIS MORISSETTE Guitar Tabs
4.  BEATLES Guitar Tabs
5.  BLINK 182 Guitar Tabs
6.  BOB DYLAN Guitar Tabs
7.  BOB MARLEY Guitar Tabs
8.  BUSH Guitar Tabs
9.  COLDPLAY Guitar Tabs
10.  DAVE MATTHEWS Guitar Tabs
11.  ERIC CLAPTON Guitar Tabs
12.  GRATEFUL Dead Guitar Tabs
13.  GREEN DAY Guitar Tabs
14.  IRON MAIDEN Guitar Tabs
15.  JACK JOHNSON Guitar Tabs
16.  JIMI HENDRIX Guitar Tabs
17.  JOHN MAYER Guitar Tabs
18.  JOHNNY CASH Guitar Tabs
19.  LED ZEPPELIN Guitar Tabs
20.  LIMP BIZKIT Guitar Tabs
21.  METALLICA Guitar Tabs
22.  NEIL YOUNG Guitar Tabs
23.  NIRVANA Guitar Tabs
24.  PEARL JAM Guitar Tabs
25.  PINK FLOYD Guitar Tabs
26.  RADIOHEAD Guitar Tabs
27  RED HOT CHILI PEPPERS Guitar Tabs
28  ROLLING STONES Guitar Tabs
29  STONE TEMPLE PILOTS Guitar Tabs
30  U2 Guitar Tabs
31.  VAN HALEN Guitar Tabs
32.  WEEZER Guitar Tabs