Guitar Resources


Anthem Part 2 (By BLINK 182)
 
-------------------------------------------------------------------------------
			     ANTHEM PART 2 - Blink-182
-------------------------------------------------------------------------------

By: Dom Nole
pm = palm mute
h = hammer on
/ = slide up
\ = slide down

  intro (clean) 4x
e|---------------------------------------------------------------------------|
B|---8---8----6---6----5---5----6---6----------------------------------------|
G|-----5---5----5---5----5---5----5---5--------------------------------------|
D|---------------------------------------------------------------------------|
A|---------------------------------------------------------------------------|
E|---------------------------------------------------------------------------|

  (distortion) 3x
e|---------------------------------------------------------------------------|
B|---------------------------------------------------------------------------|
G|---------------------------------------------------------------------------|
D|-------2h3------2------2h3------2------2h3------2------0------0------------|
A|---33-------33-----55-------55-----00-------00-----33-----33---------------|
E|---------------------------------------------------------------------------|
     pm       pm     pm       pm     pm       pm     pm     pm

  then this
e|---------------------------------------------------------------------------|
B|---------------------------------------------------------------------------|
G|---------------------------------------------------5555--5555--------------|
D|-------2h3------2------2h3------2------2h3------2--5555--5555--------------|
A|---33-------33-----55-------55-----00-------00-----3333--3333--------------|
E|---------------------------------------------------------------------------|
     pm       pm     pm       pm     pm       pm

   3x
e|---------------------------------------------------------------------|
B|---------------------------------------------------------------------|
G|---999/--10-10-10\--999\--555/--7777---------------------------------|
D|---xxx/---x--x--x\--xxx\--xxx/--xxxx---------------------------------|
A|---777/---8--8--8\--777\--333/--5555---------------------------------|
E|---------------------------------------------------------------------|

  then this
e|---------------------------------------------------------------------------|
B|---------------------------------------------------------------------------|
G|---999/--10-10-10\--55555555-----------------------------------------------|
D|---xxx/---x--x--x\--xxxxxxxx-----------------------------------------------|
A|---777/---8--8--8\--33333333-----------------------------------------------|
E|---------------------------------------------------------------------------|
  
  verse 2x
e|---------------------------------------------------------------------------|
B|---------------------------------------------------------------------------|
G|---999---5-----------------------------------------------------------------|
D|---xxx---5--55555555555555-------------------------------------------------|
A|---777---3--33333333333333--7777777--33333333------------------------------|
E|----------------------------5555555--11111111------------------------------|
              pm...............................

  this is the bass line at the end of the verses, don't have to play this
  but it sounds good if you're playing by yourself (not with yourself)
e|---------------------------------------------------------------------------|
B|---------------------------------------------------------------------------|
G|---------------------------------------------------------------------------|
D|---------------------------------------------------------------------------|
A|------7---------5---------3------------------------------------------------|
E|---5-----5---3-----3---1---------------------------------------------------|

  next verse 2x
e|---------------------------------------------------------------------------|
B|---------------------------------------------------------------------------|
G|---5----------------999---5------------------------------------------------|
D|---x-let ring-------xxx---5--55555555555555--------------------------------|
A|---3----------------777---3--33333333333333--7777777--33333333-------------|
E|---------------------------------------------5555555--11111111-------------|
                               pm...............................
  chorus
e|---------------------------------------------------------------------------|
B|---------------------------------------------------------------------------|
G|---------------------555555------------------------------555555------------|
D|---222222---333333---555555---555555---222222---333333---555555---555555---|
A|---222222---333333---333333---555555---222222---333333---333333---555555---|
E|---000000---111111------------333333---000000---111111------------333333---|

e|---------------------------------------------------------------------------|
B|---------------------------------------------------------------------------|
G|---------------------------------------------------------------------------|
D|---------------------555555----------------------3-------------------------|
A|---222222---333333---333333---555555---2222222---3-------------------------|
E|---000000---111111------------333333---0000000---1-------------------------|
     pm.........................................

  interlude (just fuck around with this chord)
e|---------------------------------------------------------------------------|
B|---------------------------------------------------------------------------|
G|---5-----------------------------------------------------------------------|
D|---x-----------------------------------------------------------------------|
A|---3-----------------------------------------------------------------------|
E|---------------------------------------------------------------------------|

thats about it.  i will leave you with today's words of wisdom.  "don't listen
to the hill people, children.  incest is not right.  any member of your family
should not come into contact with your genitalia."
e-mail any bullshit to wickdclown3d@aol.com

===============================================================================
Guitar Tabs FROM THE TOP 60 ARTISTS
1.  AC/DC Guitar Tabs
2.  AEROSMITH Guitar Tabs
3.  ALANIS MORISSETTE Guitar Tabs
4.  BEATLES Guitar Tabs
5.  BLINK 182 Guitar Tabs
6.  BOB DYLAN Guitar Tabs
7.  BOB MARLEY Guitar Tabs
8.  BUSH Guitar Tabs
9.  COLDPLAY Guitar Tabs
10.  DAVE MATTHEWS Guitar Tabs
11.  ERIC CLAPTON Guitar Tabs
12.  GRATEFUL Dead Guitar Tabs
13.  GREEN DAY Guitar Tabs
14.  IRON MAIDEN Guitar Tabs
15.  JACK JOHNSON Guitar Tabs
16.  JIMI HENDRIX Guitar Tabs
17.  JOHN MAYER Guitar Tabs
18.  JOHNNY CASH Guitar Tabs
19.  LED ZEPPELIN Guitar Tabs
20.  LIMP BIZKIT Guitar Tabs
21.  METALLICA Guitar Tabs
22.  NEIL YOUNG Guitar Tabs
23.  NIRVANA Guitar Tabs
24.  PEARL JAM Guitar Tabs
25.  PINK FLOYD Guitar Tabs
26.  RADIOHEAD Guitar Tabs
27  RED HOT CHILI PEPPERS Guitar Tabs
28  ROLLING STONES Guitar Tabs
29  STONE TEMPLE PILOTS Guitar Tabs
30  U2 Guitar Tabs
31.  VAN HALEN Guitar Tabs
32.  WEEZER Guitar Tabs