Guitar Resources


Anthem Part Ii (2) (By BLINK 182)
 
----------------------------------------------------------------------
BLINK 182 - ANTHEM PART II
----------------------------------------------------------------------
  TABBED BY VIVIEN.G 
  It's my first tab so if is there any mistakes mail me on 
  takeoff_182@hotmail.com
----------------------------------------------------------------------


CHORD CHART:
	F	G	C	A
E|--------------------------------------------------------------------
B|--------------------------------------------------------------------
G|----------------------5---------------------------------------------
D|------3-------5-------5-------7-------------------------------------
A|------3-------5-------3-------7-------------------------------------
E|------1-------3---------------5-------------------------------------

~ = let ring
x = palm mute


Riff 1 (Clean): X 4
E|-3---3-----1---1-----0---0-----1---1--------------------------------
B|---1---1-----1---1-----1---1-----1---1------------------------------
G|--------------------------------------------------------------------
D|--------------------------------------------------------------------
A|--------------------------------------------------------------------
E|--------------------------------------------------------------------


Riff 2: X 3
E|--------------------------------------------------------------------
B|--------------------------------------------------------------------
G|--------------------------------------------------------------------
D|-----2h3-----2-------2h3-----2-------2h3-----2-------0-----0--------
A|-3-3-----3-3-----3-3-----3-3-----3-3-----3-3-----3-3---3-3----------
E|--------------------------------------------------------------------


Riff 3:
E|--------------------------------------------------------------------
B|--------------------------------------------------------------------
G|-------------------------------------------------5555-5555----------
D|-----2h3-----2-------2h3-----2-------2h3-----2---5555-5555----------
A|-3-3-----3-3-----3-3-----3-3-----3-3-----3-3-----3333-3333----------
E|--------------------------------------------------------------------


Riff 4:
E|---------------|       -------------------|
B|---------------|       -------------------|
G|---------------|       --9-10-9--7777777--|
D|--9-10-9--5--7-|   x3  --9-10-9--7777777--|
A|--7-8--7--3--5-|       --7-8--7--5555555--|
E|---------------|       -------------------|



Verse:
     C~
	Everything has fallen to pieces

	Earth is dying, help me Jesus
     xCx                  xAx        xFx
	We need guidance, we've been misled
        xCx               xAx     xFx
	Young and hostile but not stupid


Verse:
     C~
	Corporate leaders, politicians

	Kids can't vote, adults elect them
     xCx                   xAx        xFx
	Laws that rule the school and workspace
        xCx                xAx       xFx
	Signs that caution sixteen's unsafe


Chorus:
                  C    F  A        G
	We really need to see this through
                 C  F      A   G
	We never wanted to be abused
                    xCx  xFx  xAx    xGx
	We'll never give up, it's no use
           xAx              F
	If we're fucked up, you're to blame


-- Riff 4 --


Verse:
     C~
	Let this train-wreck burn more slowly

	Kids are victims in this story
     xCx                     xAx     xFx
	Drown the youth with useless warnings
        xCx                    xAx        xFx
	Teenage rules, they're fucked and boring


-- Chorus --

     C~ 
	Everything has fallen to pieces

	Everything has fallen to pieces
     C~ 
	Everything has fallen to pieces
     C~ 
	Everything has fallen to...


-- Chorus --


-- Riff 2 --


End on C~
Guitar Tabs FROM THE TOP 60 ARTISTS
1.  AC/DC Guitar Tabs
2.  AEROSMITH Guitar Tabs
3.  ALANIS MORISSETTE Guitar Tabs
4.  BEATLES Guitar Tabs
5.  BLINK 182 Guitar Tabs
6.  BOB DYLAN Guitar Tabs
7.  BOB MARLEY Guitar Tabs
8.  BUSH Guitar Tabs
9.  COLDPLAY Guitar Tabs
10.  DAVE MATTHEWS Guitar Tabs
11.  ERIC CLAPTON Guitar Tabs
12.  GRATEFUL Dead Guitar Tabs
13.  GREEN DAY Guitar Tabs
14.  IRON MAIDEN Guitar Tabs
15.  JACK JOHNSON Guitar Tabs
16.  JIMI HENDRIX Guitar Tabs
17.  JOHN MAYER Guitar Tabs
18.  JOHNNY CASH Guitar Tabs
19.  LED ZEPPELIN Guitar Tabs
20.  LIMP BIZKIT Guitar Tabs
21.  METALLICA Guitar Tabs
22.  NEIL YOUNG Guitar Tabs
23.  NIRVANA Guitar Tabs
24.  PEARL JAM Guitar Tabs
25.  PINK FLOYD Guitar Tabs
26.  RADIOHEAD Guitar Tabs
27  RED HOT CHILI PEPPERS Guitar Tabs
28  ROLLING STONES Guitar Tabs
29  STONE TEMPLE PILOTS Guitar Tabs
30  U2 Guitar Tabs
31.  VAN HALEN Guitar Tabs
32.  WEEZER Guitar Tabs