Guitar Resources


Anthem Part Ii (By BLINK 182)
 
-------------------------------------------------------------------------------
                             ANTHEM PART II - Blink-182
-------------------------------------------------------------------------------

By: Kyle Barrett
I saw tom play it live on TRL so it should be right!

Intro
e|---------------------------------------------------------|  4x
b|--8----8----6----6----5----5----6-----6------------------|
g|----5----5----5----5----5----5-----5-----5---------------|
d|---------------------------------------------------------|
a|---------------------------------------------------------|
E|---------------------------------------------------------|

Guitar thingy                                                             4x  fourth time
b|----------------------------------------------------------------------------|-------------|
g|----------------------------------------------------------------------------|-------------|
d|-------2~3--------2--------2~3--------2---------2~3----------2------0---0---|-5555--5555--|
a|-3--3-------3--3-------5-5------5--5------0--0-------0--0-------------------|-3333--3333--|
E|-----------------------------------------------------------------1---1------|-------------|
P.M----       ----       ---      -----     ----       ----        -   -

Pre-Verse thing
|-------------------------|---------------------------------------|
|-------------------------|---------------------------------------|
|-9*---10*----5*-----7*---|--5*-----------------------------------|
|-x*---x-*----x*-----x*---|--x*-----------------------------------|
|-7*---8-*----3*-----5*---|--3*-----------------------------------|
|-------------------------|---------------------------------------|
                                                           only play at
                                                           the end of
                                                           the 1st time
Verse                                     Bass Fill         
|---------------------------------|-----------------------|---------|
|---------------------------------|-----------------------|---------|
|5555--5*------------5*------9*---|---9-9-----7--7------5-|--5------|
|5555--5*--7*-- 3*---5*--7*--9*---|-7-------5--------3----|--x------|
|3333--3*--7*-- 3*---3*--7*--7*---|-----------------------|--3------|
|----------5*---1*-------5*-------|-----------------------|---------|
      P.M------------------------   

Chorus        2x     3rd time                         4th time
|---------------|-------------|----------------------------------|
|---------------|-------------|----------------------------------|
|---------5*----|--------5*---|----------------------------------|
|-2*--3*--5*-5*-|-2*-3*--5*-5*|-2*--3----------------------------|
|-2*--3*--3*-5*-|-2*-3*--3*-5*|-2*--3----------------------------|
|-0*--1*-----3*-|-0*-1*-----3*|-0*--1----------------------------|
                 P.m--------------

Bridge                  when bass goes high
|---------------------|--------------------------------------------|
|end of 2nd chorus----|--------------------------------------------|
|---5-----------------|-----5*-------------------------------------|
|---x-----------------|-----x*-------------------------------------|
|---3-----------------|-----3*-------------------------------------|
|---------------------|--------------------------------------------|

 At the end of the secong guitar thingy
 end on this note and let it fade out
|-----------------------------------.---
|-------------------------------------
|-5------------------------------------
|-5---------------------------------------
|-3--------------------------------------
|----------------------------------------

*- repeat with rythem (listen to cd for amount of times played)
P.M- Palm mute

SONG ORDER
----------
Intro
Guitar Thingy
Pre-Verse
Verse
Chorus
Pre-Verse 
Verse
Chorus
Bridge
Chorus
Guitar thi

-------------------------------------------------------------------------------

Guitar Tabs FROM THE TOP 60 ARTISTS
1.  AC/DC Guitar Tabs
2.  AEROSMITH Guitar Tabs
3.  ALANIS MORISSETTE Guitar Tabs
4.  BEATLES Guitar Tabs
5.  BLINK 182 Guitar Tabs
6.  BOB DYLAN Guitar Tabs
7.  BOB MARLEY Guitar Tabs
8.  BUSH Guitar Tabs
9.  COLDPLAY Guitar Tabs
10.  DAVE MATTHEWS Guitar Tabs
11.  ERIC CLAPTON Guitar Tabs
12.  GRATEFUL Dead Guitar Tabs
13.  GREEN DAY Guitar Tabs
14.  IRON MAIDEN Guitar Tabs
15.  JACK JOHNSON Guitar Tabs
16.  JIMI HENDRIX Guitar Tabs
17.  JOHN MAYER Guitar Tabs
18.  JOHNNY CASH Guitar Tabs
19.  LED ZEPPELIN Guitar Tabs
20.  LIMP BIZKIT Guitar Tabs
21.  METALLICA Guitar Tabs
22.  NEIL YOUNG Guitar Tabs
23.  NIRVANA Guitar Tabs
24.  PEARL JAM Guitar Tabs
25.  PINK FLOYD Guitar Tabs
26.  RADIOHEAD Guitar Tabs
27  RED HOT CHILI PEPPERS Guitar Tabs
28  ROLLING STONES Guitar Tabs
29  STONE TEMPLE PILOTS Guitar Tabs
30  U2 Guitar Tabs
31.  VAN HALEN Guitar Tabs
32.  WEEZER Guitar Tabs