Guitar Resources


Cacophony (By BLINK 182)
 
------------------------------------------------------------------------
			           CACOPHONY - Blink 182
------------------------------------------------------------------------

Bass Intro.
G|------------------------------------|
D|------------------------------------|
A|-----3--------3--------7--------3---|
E|-0-0---0--3-3---3--5-5---5--1-1---1-|

Guitar Intro. Part 1
e|-------------------------------------------------|
B|-5--5h7-5-5-5h7-10-10-9-5--5-5h7-5-5-5h7-5-5-4-5-|
G|-------------------------------------------------|
D|-------------------------------------------------|
A|-------------------------------------------------|
E|-------------------------------------------------|

Part 2 (It's the Chorus as well)
Chords (Order of appearance)
e|----------------------------------|
B|----------------------------------|
G|-2---------2----10-not sure----17-|
D|-2----3----2----10--about------17-|
A|-0----3----0-----8-this one----15-|
E|------1---------------------------|

Verse (I thinks it's guitar)
e|------------------------------------|
B|------------------------------------|
G|------------------------------------|
D|------------------------------------|
A|-----3--------3------7-7h8p7----3---|
E|-0-0---0--3-3---3--5----------1---1-|

Chorus
Part 2 of Intro as above

Next Part(You might call it an Interlude or Post-Chorus, it's broken into
          sections)
Section 1.
e|---------------------------------------------------|
B|---------------------------------------------------|
G|-5(strum quite a few times)------------------------|
D|--------------------------------2-3-3-3-3/5-5------|
A|--------------------------------2-3-3-3-3/5-5------|
E|--------------------------------0-1-1-1-1/3-3------|

Section 2. (Where Mark starts singing again)
Chords (Order of appearence)
e|-------------|
B|-------------|
G|-5----2------|
D|-5----2----3-|
A|-3----0----3-|
E|-----------1-|

Section 3. (When Mark stops singing temporarily)
Just repeat Section 1. adding the following to the first bar: 
e|------------------------|
B|------------------------|
G|-444(strum a few times)-|
D|------------------------|
A|------------------------|
E|------------------------|

Section 4. (Mark starts singing again)
Chords (Order of appearance)
e|----------------------------|
B|----------------------------|
G|-9----10----5-second time---|
D|-9----10----5-play this---5-|
A|-7-----8----3-with X's----5-|
E|--------------------------3-|

Section 5. (Mark stops singing temporarily again)
Just repeat Section 3.
         
Outro ("Sometimes I don't feel the...")
Chords (Order of appearance)
e|---------------------------------------------|
B|---------------------------------------------|
G|-2---------5-------adding-4-4-4-4-5-let ring-|
D|-2----3----5----3----------------------------|
A|-0----3----3----3----------------------------|
E|------1---------1----------------------------|

------------------------------------------------------------------------

Guitar Tabs FROM THE TOP 60 ARTISTS
1.  AC/DC Guitar Tabs
2.  AEROSMITH Guitar Tabs
3.  ALANIS MORISSETTE Guitar Tabs
4.  BEATLES Guitar Tabs
5.  BLINK 182 Guitar Tabs
6.  BOB DYLAN Guitar Tabs
7.  BOB MARLEY Guitar Tabs
8.  BUSH Guitar Tabs
9.  COLDPLAY Guitar Tabs
10.  DAVE MATTHEWS Guitar Tabs
11.  ERIC CLAPTON Guitar Tabs
12.  GRATEFUL Dead Guitar Tabs
13.  GREEN DAY Guitar Tabs
14.  IRON MAIDEN Guitar Tabs
15.  JACK JOHNSON Guitar Tabs
16.  JIMI HENDRIX Guitar Tabs
17.  JOHN MAYER Guitar Tabs
18.  JOHNNY CASH Guitar Tabs
19.  LED ZEPPELIN Guitar Tabs
20.  LIMP BIZKIT Guitar Tabs
21.  METALLICA Guitar Tabs
22.  NEIL YOUNG Guitar Tabs
23.  NIRVANA Guitar Tabs
24.  PEARL JAM Guitar Tabs
25.  PINK FLOYD Guitar Tabs
26.  RADIOHEAD Guitar Tabs
27  RED HOT CHILI PEPPERS Guitar Tabs
28  ROLLING STONES Guitar Tabs
29  STONE TEMPLE PILOTS Guitar Tabs
30  U2 Guitar Tabs
31.  VAN HALEN Guitar Tabs
32.  WEEZER Guitar Tabs