Guitar Resources


Country Song (By BLINK 182)
 
-------------------------------------------------------------------------------
                               COUNTRY SONG - bLink 182
-------------------------------------------------------------------------------

By:dREw (gigabum@aol.com)
---------------------------
>=slide

()=muted thingy(not palmed)
----------------------------
bass thingy at begining ((play through whole song going faster and faster))

G|---------------------------------------------------------------------------|
D|---------------------------------------------------------------------------|
A|---3--3---3---3----0-2-3----------((later in song)---33---3--023-----------|
E|----3---3---3---3---------------------------------------33--3--------------|

 guitar
e|---------------------------------------------------------------------------|
B|---------------------------------------------------------------------------|
G|--------------------------------5------------------------------------------|
D|---------2-((let ring))---------x-((let ring))-----------------------------|
A|---0-2-3----------------0-2-3---3------------------------------------------|
E|--3--------------------3---------------------------------------------------|

e|---------------------------------------------------------------------------|
B|---------------------------------------------------------------------------|
G|----------5-5-5--2--5-5-5--2--5-5-5--2-------------------------------------|
D|----------x-x-x--0--x-x-x--0--x-x-x--0-------------------------------------|
A|---0-2-3--3-3-3--0--3-3-3--0--3-3-3--0-------------------------------------|
E|--3------------------------------------------------------------------------|

take off your pants..daad......
e|---------------------------------------------------------------------------|
B|---------------------------------------------------------------------------|
G|---------------------------------------------------------------------------|
D|----2-2-2-2-2-2------------------------------------------------------------|
A|---3-3-3-3-3-3-3-----------------------------------------------------------|
E|---------------------------------------------------------------------------|

your penis is the biggest thing,my butts ever had....
e|---------------------------------------------------------------------------|
B|---------------------------------------------------------------------------|
G|---------------------------------------------------------------------------|
D|-----------2-2-2-2-2-2-----------------------------------------------------|
A|---0-2-3--3-3-3-3-3-3------------------------------------------------------|
E|--3------------------------------------------------------------------------|

but you know that,it feels so good....
e|---------------------------------------------------------------------------|
B|---------------------------------------------------------------------------|
G|--5-5-5-5-5-5-5-5->-7-7-7-7-7-7-7-7----------------------------------------|
D|--x-x-x-x-x-x-x-x->-x-x-x-x-x-x-x-x----------------------------------------|
A|--3-3-3-3-3-3-3-3->-5-5-5-5-5-5-5-5----------------------------------------|
E|---------------------------------------------------------------------------|

SHUT YOUR FUCKING FACE UNCLE FUCKER!
e|---------------------------------------------------------------------------|
B|---------------------------------------------------------------------------|
G|-(7)->-(5)-----------------------------------------------------------------|
D|-(x)->-(x)-------((end on (5)))--------------------------------------------|
A|-(5)->-(3)----------------(x)----------------------------------------------|
E|--------------------------(3)-----------------------------------------------|

COOL SONG HUH!
===============================================================================

Guitar Tabs FROM THE TOP 60 ARTISTS
1.  AC/DC Guitar Tabs
2.  AEROSMITH Guitar Tabs
3.  ALANIS MORISSETTE Guitar Tabs
4.  BEATLES Guitar Tabs
5.  BLINK 182 Guitar Tabs
6.  BOB DYLAN Guitar Tabs
7.  BOB MARLEY Guitar Tabs
8.  BUSH Guitar Tabs
9.  COLDPLAY Guitar Tabs
10.  DAVE MATTHEWS Guitar Tabs
11.  ERIC CLAPTON Guitar Tabs
12.  GRATEFUL Dead Guitar Tabs
13.  GREEN DAY Guitar Tabs
14.  IRON MAIDEN Guitar Tabs
15.  JACK JOHNSON Guitar Tabs
16.  JIMI HENDRIX Guitar Tabs
17.  JOHN MAYER Guitar Tabs
18.  JOHNNY CASH Guitar Tabs
19.  LED ZEPPELIN Guitar Tabs
20.  LIMP BIZKIT Guitar Tabs
21.  METALLICA Guitar Tabs
22.  NEIL YOUNG Guitar Tabs
23.  NIRVANA Guitar Tabs
24.  PEARL JAM Guitar Tabs
25.  PINK FLOYD Guitar Tabs
26.  RADIOHEAD Guitar Tabs
27  RED HOT CHILI PEPPERS Guitar Tabs
28  ROLLING STONES Guitar Tabs
29  STONE TEMPLE PILOTS Guitar Tabs
30  U2 Guitar Tabs
31.  VAN HALEN Guitar Tabs
32.  WEEZER Guitar Tabs