Guitar Resources


Dammit (3) (By BLINK 182)
 
Band: Blink 182
Song: Dammit
Album: Dude Ranch
Tabbed by: Tsuyoshi Onda, looking_for_blues_clues@hotmail.com

Main Riff:
|------------------------------------------------------------------------------------------------
|------------------------------------------------------------------------------------------------
|------------------------------------------------------------------------------------------------
|---------0--0--2----------------0--0--2---------------0--0--2------------------2--2--0----(x4)--
|--3--3-------------------------------------------0--0-------------------------------------------
|--------------------------3--3-------------------------------------------1--1-------------------

Or (the alternative way: this is how Tom plays it in the video)

|------------------------------------------------------------------------------------------------
|------------------------------------------------------------------------------------------------
|------------------------------------------------------------------------------------------------
|--------------2---------------------2---------------------2-------------2--2--------------(x4)--
|--3--3--5--5------------------5--5------------------5--5-----------------------5----------------
|------------------------3--3------------------5--5----------------1--1--------------------------


Chords (these are the same thorughout the song):
 
	     C5		             G5		             A5		             F5

|------------------------------------------------------------------------------------------------
|------------------------------------------------------------------------------------------------
|------------5-----------------------------------------------------------------------------------
|------------5-----------------------5-----------------------7----------------------3------------
|------------3-----------------------5-----------------------7----------------------3------------
|------------------------------------3-----------------------5----------------------1------------
	     /It's alright	    /To tell me 	     /What you think        /About me
	     /I won't try           /To argue		     /Or hold it	    /Against you 

|------------------------------------------------------------------------------------------------
|------------------------------------------------------------------------------------------------
|------------5-----------------------------------------------------------------------------------
|------------5-----------------------5-----------------------7----------------------3------------
|------------3-----------------------5-----------------------7----------------------3------------
|------------------------------------3-----------------------5----------------------1------------
	    /I know that	     /You're leaving         /You must have         /Your reasons
	    /The season		     /Is calling 	     /And your pictures      /Are falling down

|------------------------------------------------------------------------------------------------
|------------------------------------------------------------------------------------------------
|------------------------------------------------------------------------------------------------
|---------0--0--2----------------0--0--2---------------0--0--2------------------2--2--0----(x2)--
|--3--3-------------------------------------------0--0-------------------------------------------
|--------------------------3--3-------------------------------------------1--1-------------------

|------------------------------------------------------------------------------------------------
|------------------------------------------------------------------------------------------------
|------------5-----------------------------------------------------------------------------------
|------------5-----------------------5-----------------------7----------------------3------------
|------------3-----------------------5-----------------------7----------------------3------------
|------------------------------------3-----------------------5----------------------1------------
             /The steps that	     /I retrace		     /The sad look          /On your face
             /The timing 	     /And structure	     /Did you hear	    /That he fucked her

|------------------------------------------------------------------------------------------------
|------------------------------------------------------------------------------------------------
|------------5-----------------------------------------------------------------------------------
|------------5-----------------------5-----------------------7----------------------3------------
|------------3-----------------------5-----------------------7----------------------3------------
|------------------------------------3-----------------------5----------------------1------------
	     /A day late	     /A buck short	     /I'm writing 	    /The report
	     /On losing		     /And failing	     /When I move	    /I'm flailing now
	
And it's happened once again G5
I'll turn to a friend A5
Someone that understands F5
Sees through the master plan C5
But everybody's gone G5 
And I've been here for too long A5 
To face this on my own F5
Well I guess this is growing up

|------------------------------------------------------------------------------------------------
|------------------------------------------------------------------------------------------------
|------------------------------------------------------------------------------------------------
|---------0--0--2----------------0--0--2---------------0--0--2------------------2--2--0----(x2)--
|--3--3-------------------------------------------0--0-------------------------------------------
|--------------------------3--3-------------------------------------------1--1-------------------

|------------------------------------------------------------------------------------------------
|------------------------------------------------------------------------------------------------
|------------5-----------------------------------------------------------------------------------
|------------5-----------------------5-----------------------7----------------------3------------
|------------3-----------------------5-----------------------7----------------------3------------
|------------------------------------3-----------------------5----------------------1------------
	     /And maybe		     /I'll see you	     /At a movie	    /Sneak preview
	     /You'll show up	     /And walk by	     /On the arm	    /Of that guy

|------------------------------------------------------------------------------------------------
|------------------------------------------------------------------------------------------------
|------------5-----------------------------------------------------------------------------------
|------------5-----------------------5-----------------------7----------------------3------------
|------------3-----------------------5-----------------------7----------------------3------------
|------------------------------------3-----------------------5----------------------1------------
	     /And I'll smil          /And you'll wave	     /We'll pretend         /That it's ok
	     /The charade	     /It won't last	     /When he's gone        /I won't come back

And it's happened once again G5
I'll turn to a friend A5
Someone that understands F5
Sees through the master plan C5
But everybody's gone G5 
And I've been here for too long A5 
To face this on my own F5
Well I guess this is growing up

Bridge:

|------------------------------------------------------------------------------------------------
|---5----------3--5------5---------3--5-------3--5-----------------------------------------------
|------5-------------5------5------------5----------5--------------------------------------------
|---------5--------------------5-----------------------------------------------------------(x2)--
|------------------------------------------------------------------------------------------------
|------------------------------------------------------------------------------------------------


Main Riff:
|------------------------------------------------------------------------------------------------
|------------------------------------------------------------------------------------------------
|------------------------------------------------------------------------------------------------
|---------0--0--2----------------0--0--2---------------0--0--2------------------2--2--0----(x4)--
|--3--3-------------------------------------------0--0-------------------------------------------
|--------------------------3--3-------------------------------------------1--1-------------------

Well I guess this is growing up (x5)
Guitar Tabs FROM THE TOP 60 ARTISTS
1.  AC/DC Guitar Tabs
2.  AEROSMITH Guitar Tabs
3.  ALANIS MORISSETTE Guitar Tabs
4.  BEATLES Guitar Tabs
5.  BLINK 182 Guitar Tabs
6.  BOB DYLAN Guitar Tabs
7.  BOB MARLEY Guitar Tabs
8.  BUSH Guitar Tabs
9.  COLDPLAY Guitar Tabs
10.  DAVE MATTHEWS Guitar Tabs
11.  ERIC CLAPTON Guitar Tabs
12.  GRATEFUL Dead Guitar Tabs
13.  GREEN DAY Guitar Tabs
14.  IRON MAIDEN Guitar Tabs
15.  JACK JOHNSON Guitar Tabs
16.  JIMI HENDRIX Guitar Tabs
17.  JOHN MAYER Guitar Tabs
18.  JOHNNY CASH Guitar Tabs
19.  LED ZEPPELIN Guitar Tabs
20.  LIMP BIZKIT Guitar Tabs
21.  METALLICA Guitar Tabs
22.  NEIL YOUNG Guitar Tabs
23.  NIRVANA Guitar Tabs
24.  PEARL JAM Guitar Tabs
25.  PINK FLOYD Guitar Tabs
26.  RADIOHEAD Guitar Tabs
27  RED HOT CHILI PEPPERS Guitar Tabs
28  ROLLING STONES Guitar Tabs
29  STONE TEMPLE PILOTS Guitar Tabs
30  U2 Guitar Tabs
31.  VAN HALEN Guitar Tabs
32.  WEEZER Guitar Tabs