Guitar Resources


Dammit (5) (By BLINK 182)
 
Blink 182: DAMMIT

Transcribed by James Mills Jvmes@hotmail.com

These tabs are the same as how Blink 182 plays it, ive seen the video 
and the tabs are rite on.


Intro
----------------------------------------------------------
----------------------------------------------------------
----------------------------------------------------------
------------33----------------11--------------------------
---33----------------00-----------------------------------
------00-2-----00-2-----00-2-----22-0---------------------



Solo
---0---------0-----0---------0-------0-------------------- 
-----1-----3---1-----1-----3---1---3---1------------------ 
-------0---------------0----------------------------------
----------------------------------------------------------
----------------------------------------------------------
----------------------------------------------------------

Note: really easy way to place your fingers Just figure it out.
Guitar Tabs FROM THE TOP 60 ARTISTS
1.  AC/DC Guitar Tabs
2.  AEROSMITH Guitar Tabs
3.  ALANIS MORISSETTE Guitar Tabs
4.  BEATLES Guitar Tabs
5.  BLINK 182 Guitar Tabs
6.  BOB DYLAN Guitar Tabs
7.  BOB MARLEY Guitar Tabs
8.  BUSH Guitar Tabs
9.  COLDPLAY Guitar Tabs
10.  DAVE MATTHEWS Guitar Tabs
11.  ERIC CLAPTON Guitar Tabs
12.  GRATEFUL Dead Guitar Tabs
13.  GREEN DAY Guitar Tabs
14.  IRON MAIDEN Guitar Tabs
15.  JACK JOHNSON Guitar Tabs
16.  JIMI HENDRIX Guitar Tabs
17.  JOHN MAYER Guitar Tabs
18.  JOHNNY CASH Guitar Tabs
19.  LED ZEPPELIN Guitar Tabs
20.  LIMP BIZKIT Guitar Tabs
21.  METALLICA Guitar Tabs
22.  NEIL YOUNG Guitar Tabs
23.  NIRVANA Guitar Tabs
24.  PEARL JAM Guitar Tabs
25.  PINK FLOYD Guitar Tabs
26.  RADIOHEAD Guitar Tabs
27  RED HOT CHILI PEPPERS Guitar Tabs
28  ROLLING STONES Guitar Tabs
29  STONE TEMPLE PILOTS Guitar Tabs
30  U2 Guitar Tabs
31.  VAN HALEN Guitar Tabs
32.  WEEZER Guitar Tabs