Guitar Resources


Dammit (By BLINK 182)
 
-------------------------------------------------------------------------------
                               DAMMIT - Blink-182
-------------------------------------------------------------------------------

[]D..[]..[]\/[]..[]D
PM=Palm Mute

RIFF 1
E--------------------------
B--------------------------
G--------------------------
D--------------------------
A-33-55-7--55-7--55-7--55-7
E--------33----55----11----

( This way of playing the riff sounds better LIVE)

VERSES 1 2 & 3
E--------------------------------------------
B--------------------------------------------
G-5-PM555555---------------------------------
D-5-PM555555-5-PM555555-7-PM777777-3-PM333333	X 2
A-3-PM333333-5-PM555555-7-PM777777-3-PM333333
E------------3-PM333333-5-PM555555-1-PM111111

Repeat same chords and for 2 more bars without the palm-muting.

CHORUS-slower rythm. Listen to the CD and figure it out
E--------------------
B--------------------
G-5555---------------
D-5555-5555-7777-3333	X 2
A-3333-5555-7777-3333
E------3333-5555-1111

RIFF 2-Solo thingy near the end of the song
E-----------------------------------------
B-----------------------------------------
G-5----5-7-9-5----5-9-5-0----0-7-9-5-7-9-5
D-----------------------------------------
A-----------------------------------------
E-----------------------------------------

E----------------------------
B----------------------------
G-9-5-0----0-7-9-5----0-9-5-0
D----------------------------
A----------------------------
E----------------------------
...............................Well i guess this is growing up..

SONG ORDER
RIFF 1 X 4
VERSE
RIFF 1 X 2
CHORUS
RIFF 1 X 2
VERSE
CHORUS
RIFF 2 X 1
RIFF 1 X 4
If uv'e got n e thing to say bout this tab lemme no at

reda_lakhani@hotmail.com

PS. To play the first riff fast enuf, use ALTERNATE PICKING. If u dont no how,
tough! learn it cuz ur gonna need it in the future.

-------------------------------------------------------------------------------
Guitar Tabs FROM THE TOP 60 ARTISTS
1.  AC/DC Guitar Tabs
2.  AEROSMITH Guitar Tabs
3.  ALANIS MORISSETTE Guitar Tabs
4.  BEATLES Guitar Tabs
5.  BLINK 182 Guitar Tabs
6.  BOB DYLAN Guitar Tabs
7.  BOB MARLEY Guitar Tabs
8.  BUSH Guitar Tabs
9.  COLDPLAY Guitar Tabs
10.  DAVE MATTHEWS Guitar Tabs
11.  ERIC CLAPTON Guitar Tabs
12.  GRATEFUL Dead Guitar Tabs
13.  GREEN DAY Guitar Tabs
14.  IRON MAIDEN Guitar Tabs
15.  JACK JOHNSON Guitar Tabs
16.  JIMI HENDRIX Guitar Tabs
17.  JOHN MAYER Guitar Tabs
18.  JOHNNY CASH Guitar Tabs
19.  LED ZEPPELIN Guitar Tabs
20.  LIMP BIZKIT Guitar Tabs
21.  METALLICA Guitar Tabs
22.  NEIL YOUNG Guitar Tabs
23.  NIRVANA Guitar Tabs
24.  PEARL JAM Guitar Tabs
25.  PINK FLOYD Guitar Tabs
26.  RADIOHEAD Guitar Tabs
27  RED HOT CHILI PEPPERS Guitar Tabs
28  ROLLING STONES Guitar Tabs
29  STONE TEMPLE PILOTS Guitar Tabs
30  U2 Guitar Tabs
31.  VAN HALEN Guitar Tabs
32.  WEEZER Guitar Tabs