Guitar Resources


Dancing With Myself (By BLINK 182)
 
Band : Blink-182
Song : Dancing with myself
Me   : molotov@wanadoo.fr
Visit my site : www.chez.com/tolmo
I saw that song was requested to be tabbed, so I tab it !

I transcibed this song for two guitar, but in live, the guitar 2 is the bass.



* means palm mute
> means let ring
( ) means ghost note


_____________________________________________________________________________

Intro

gtr1
e------------------------------------------------------------------
b------------------------------------------------------------------
g--5-5-4-5-7-5--5-5-4-5-7-5--5-5-4-5-7--5-5-4-5-7--5-5-4-5-7-------
d------------------------------------------------------------------
a------------------------------------------------------------------
e------------------------------------------------------------------

gtr2                                                                
e------------------------------------------------------------------
b------------------------------------------------------------------
g----------------5555555555555555555555555555555555555555555-------
d----------------5555555555555555555555555555555555555555555-------
a----------------3333333333333333333333333333333333333333333-------
e------------------------------------------------------------------


_____________________________________________________________________________


Riff #1

gtr1
e--------------------------------------------------
b--------------------------------------------------
g--5-5-4-5-7-5--5-5-4-5-7-5--5-5-4-5-7--5-5-4-5-7--
d--------------------------------------------------
a--------------------------------------------------
e--------------------------------------------------
                                                              
gtr2                                                           
e--------------------------------------------------
b--************------------------------------------
g--555555555555-************-**********-**********-
d--555555555555-333333333333-5555555555-3333333333-
a--333333333333-333333333333-5555555555-3333333333-
e---------------111111111111-3333333333-1111111111-



_____________________________________________________________________________


Chorus #1

gtr1
e------------------------------------------------------
b------------------------------------------------------
g--5---------------------------------------------------
d--5--5-3-2--3--5-3-2--5--5-3-2--3--5-3-2--------------
a--3---------3---------5---------3---------------------
e------------1---------3---------1---------------------

gtr2                                                   
e------------------------------------------------------
b----*******-------------------------------------------
g--555555555---*******---*******---*******-------------
d--555555555-333333333-555555555-333333333-------------
a--333333333-333333333-555555555-333333333-------------  
e------------111111111-333333333-111111111-------------
       
              

_____________________________________________________________________________


Chorus #2

gtr1
e------------------------------------------------------
b------------------------------------------------------
g--5---------------------------------------------------
d--5--5-3-2--3--5-3-2--5--5-3-2--3--5-3-2--------------
a--3---------3---------5---------3---------------------
e------------1---------3---------1---------------------

gtr2                                                   
e------------------------------------------------------
b----*******-------------*******-----------------------
g--555555555---*******-555555555---*******-------------
d--555555555-333333333-555555555-555555555-------------
a--333333333-333333333-333333333-555555555-------------  
e------------111111111-----------333333333-------------



_____________________________________________________________________________


Riff #2

gtr1
e-----------------------------------------------
b-----------------------------------------------
g-----------------------------------------------
d----****-****-********--****-****--------------
a-(1)3333-5555-10101010--3333-5555-10101010----- on the 6th time, repeat the 
e----------------------------------------------- last note a lot 
                                                    
gtr2                                                
e-----------------------------------------------                       
b---********************------------------------               
g---55555555555555555555-******************-----     
d---55555555555555555555-555555555555555555-----
a---33333333333333333333-555555555555555555-----
e------------------------333333333333333333-----



_____________________________________________________________________________


riff #3

gtr1                         hold the bend, then progressivly release
e-----------------------------------------||-------
b-----------------------------------------\/--------
g--5-5-4-5-7-5--5-5-4-5-7-5--5-5-4-5-7--5bbbbr-----
d--------------------------------------------------
a--------------------------------------------------
e--------------------------------------------------
                                                              
gtr2                                                           
e--------------------------------------------------
b---***********------------------------------------
g--555555555555--***********--*********------------
d--555555555555-333333333333-5555555555-3>>>>>-----
a--333333333333-333333333333-5555555555-3>>>>>-----
e---------------111111111111-3333333333-1>>>>>-----



_____________________________________________________________________________


End 

gtr1
e-----------------------------------------------------------------------
b-----------------------------------------------------------------------
g-----------------------------------------------------------------------
d-----------------------------------------------------------------------
a-----------------------------------------------------------------------
e-----------------------------------------------------------------------

gtr2
e------------------------------------------------------------------------
b------------------------------------------------------------------------
g--5555555555----------------- and for --5-------------------------------
d--5555555555-33333333333333-- the end --5-repeat a lot that note--------
a--3333333333-33333333333333-------------3-------------------------------
e-------------11111111111111---------------------------------------------


_____________________________________________________________________________


I have not do the order but it's easy to find it ! If you want to do it, you can send me it.


Conversion gtr 2 => bass
 ______________________________________________
| e-----               |   e-----              |
| b-----               |   b-----              |
| g-5---      g-----   |   g-----      g-----  |
| d-5---  =>  d-----   |   d-3---  =>  d-----  |
| a-3---      a-3---   |   a-3---      a-----  |
| e-----      e-----   |   e-1---      e-1---  |
|                      |                       |
|______________________|_______________________|
 ________________________
| e-----                 |      
| b-----                 |      
| g-----      g-----     |      
| d-5---  =>  d-----     |    
| a-5---      a-----     |   
| e-3---      e-3---     |  
|________________________|
Guitar Tabs FROM THE TOP 60 ARTISTS
1.  AC/DC Guitar Tabs
2.  AEROSMITH Guitar Tabs
3.  ALANIS MORISSETTE Guitar Tabs
4.  BEATLES Guitar Tabs
5.  BLINK 182 Guitar Tabs
6.  BOB DYLAN Guitar Tabs
7.  BOB MARLEY Guitar Tabs
8.  BUSH Guitar Tabs
9.  COLDPLAY Guitar Tabs
10.  DAVE MATTHEWS Guitar Tabs
11.  ERIC CLAPTON Guitar Tabs
12.  GRATEFUL Dead Guitar Tabs
13.  GREEN DAY Guitar Tabs
14.  IRON MAIDEN Guitar Tabs
15.  JACK JOHNSON Guitar Tabs
16.  JIMI HENDRIX Guitar Tabs
17.  JOHN MAYER Guitar Tabs
18.  JOHNNY CASH Guitar Tabs
19.  LED ZEPPELIN Guitar Tabs
20.  LIMP BIZKIT Guitar Tabs
21.  METALLICA Guitar Tabs
22.  NEIL YOUNG Guitar Tabs
23.  NIRVANA Guitar Tabs
24.  PEARL JAM Guitar Tabs
25.  PINK FLOYD Guitar Tabs
26.  RADIOHEAD Guitar Tabs
27  RED HOT CHILI PEPPERS Guitar Tabs
28  ROLLING STONES Guitar Tabs
29  STONE TEMPLE PILOTS Guitar Tabs
30  U2 Guitar Tabs
31.  VAN HALEN Guitar Tabs
32.  WEEZER Guitar Tabs