Guitar Resources


Dont Tell Me Its Over (By BLINK 182)
 
-------------------------------------------------------------------------------
                      DON'T TELL ME ITS OVER - blink 182
-------------------------------------------------------------------------------

By:  Todd Banker - PunkMunkey182@aol.com 
     
     This is a new super rad bonus track off of the "green" version of 
     "Take Off Your Pants & Jacket"

 Intro: (Let Ring) "I hear the phone..." & "I will admit..."
e|---------------------------------------------------------------------------|
B|---------------------------------------------------------------------------|
G|---5-----------------------------------------------------------------------|
D|---5-----------------------------------------------------------------------|
A|---3-----------------------------------------------------------------------|
E|---------------------------------------------------------------------------|
  
 "Cant leave my room..." & "Girls always cry..."
e|---------------------------------------------------------------------------|
B|---------------------------------------------------------------------------|
G|---5-5x--------------------------------------------------------------------|
D|---5-5x--------------------------------------------------------------------|
A|---3-3x--------------------------------------------------------------------|
E|---------------------------------------------------------------------------|

 Chorus: "Hold on..." & "Dont tell me that its over..."
e|---------------------------------------------------------------------------|
B|---------------------------------------------------------------------------|
G|---5555555-----------------------------------------------------------------|
D|---3333333---5555---3333---------------------------------------------------|
A|---3333333---5555---3333---------------------------------------------------|
E|-------------3333---1111---------------------------------------------------|

e|---------------------------------------------------------------------------|
B|---------------------------------------------------------------------------|
G|---------------------------------------------------------------------------|
D|-----2---2---3-2---2---2---3-2---2---2---3-2---2---2---3-2-----------------|
A|---3---3---3---------3---3---------3---3---------3---3---------------------|
E|---------------------------------------------------------------------------|

 Verse:
e|---------------------------------------------------------------------------|
B|---------------------------------------------------------------------------|
G|---5xxxxxxxxxxxx-----------------------------------------------------------|
D|---5xxxxxxxxxxxx---5xxxxxx---3xxxxxx---------------------------------------|
A|---3xxxxxxxxxxxx---5xxxxxx---3xxxxxx---------------------------------------|
E|-------------------3xxxxxx---1xxxxxx---------------------------------------|
      pm..........    pm....    pm....

 Bridge:
e|---------------------------------------------------------------------------|
B|---------------------------------------------------------------------------|
G|---5xxxxxxxxxxx------------------------------------------------------------|
D|---5xxxxxxxxxxx---5xxxxxx---7xx---3xxxxxx----------------------------------|
A|---3xxxxxxxxxxx---5xxxxxx---7xx---3xxxxxx----------------------------------|
E|------------------3xxxxxx---5xx---1xxxxxx----------------------------------|
      pm.........    pm....    pm    pm....
  
 End on: (Let Ring)
e|---------------------------------------------------------------------------|
B|---------------------------------------------------------------------------|
G|---5-----------------------------------------------------------------------|
D|---5-----------------------------------------------------------------------|
A|---3-----------------------------------------------------------------------|
E|---------------------------------------------------------------------------|

 Thats it!  Its easy to play.  Listen for different strumming patterns in the bridge 
 and the chorus.  If any have any questions or comments then e-mail me.  Also, if you 
 havent gotten blink-182s new album "Take Off Your Pants & Jacket" then go get it... 
 it kicks ass!

-------------------------------------------------------------------------------

Guitar Tabs FROM THE TOP 60 ARTISTS
1.  AC/DC Guitar Tabs
2.  AEROSMITH Guitar Tabs
3.  ALANIS MORISSETTE Guitar Tabs
4.  BEATLES Guitar Tabs
5.  BLINK 182 Guitar Tabs
6.  BOB DYLAN Guitar Tabs
7.  BOB MARLEY Guitar Tabs
8.  BUSH Guitar Tabs
9.  COLDPLAY Guitar Tabs
10.  DAVE MATTHEWS Guitar Tabs
11.  ERIC CLAPTON Guitar Tabs
12.  GRATEFUL Dead Guitar Tabs
13.  GREEN DAY Guitar Tabs
14.  IRON MAIDEN Guitar Tabs
15.  JACK JOHNSON Guitar Tabs
16.  JIMI HENDRIX Guitar Tabs
17.  JOHN MAYER Guitar Tabs
18.  JOHNNY CASH Guitar Tabs
19.  LED ZEPPELIN Guitar Tabs
20.  LIMP BIZKIT Guitar Tabs
21.  METALLICA Guitar Tabs
22.  NEIL YOUNG Guitar Tabs
23.  NIRVANA Guitar Tabs
24.  PEARL JAM Guitar Tabs
25.  PINK FLOYD Guitar Tabs
26.  RADIOHEAD Guitar Tabs
27  RED HOT CHILI PEPPERS Guitar Tabs
28  ROLLING STONES Guitar Tabs
29  STONE TEMPLE PILOTS Guitar Tabs
30  U2 Guitar Tabs
31.  VAN HALEN Guitar Tabs
32.  WEEZER Guitar Tabs