Guitar Resources


Dont Tell Me That Its Over (2) (By BLINK 182)
 
Dont tell me that its over, by blink182
Tabber: Aaron Haight (stratstrummer40)
Standard Tuning

This is a great song and i couldn't find a perfect tab for it so i decided to tab it. 
The timing of the intro is a little akward but u will get it. Please Rate This!

Intro :00-:17   

e-----------------------------------------------------
b-----------------------------------------------------
g-5~----55----5~----55--------------------------------
d-5~----55----5~----55--------------------------------
a-3~----33----3~----33--------------------------------
e-----------------------------------------------------

Verse 1 or whatever :18-:26 just keep on strumming this chord until the chorus

e-----------------------------------------------------
b-----------------------------------------------------
g-5---------------------------------------------------
d-x---------------------------------------------------
a-3---------------------------------------------------
e-----------------------------------------------------

Chorus :27-:42

e-----------------------------------------------------
b-----------------------------------------------------
g-5---------------------------------------------------
d-5(x8)-5------3--------------------------------------X4
a-3-----5(x4)--3(x4)----------------------------------
e-------3------1--------------------------------------

Interlude or whatever you want to call it  :43-:51 I hope this isnt too confusing

e-----------------------------------------------------
b-----------------------------------------------------
g-----------------------------------------------------
d---2-0-2---2---2-0-2---2---2-0-2---2---2-0-2--2------
a-3-------3---3-------3---3-------3---3-------3--3----
e-----------------------------------------------------

Verse 2 or whatever  :52-1:06 play the first chord and then strum the rest up and 
down very fast palm muted.

e-----------------------------------------------------
b-----------------------------------------------------
g-5555555555555---------------------------------------
d-5555555555555-5555555-3333333-----------------------X4
a-3333333333333-5555555-3333333-----------------------
e---------------3333333-1111111-----------------------
   xxxxxxxxxxxx  xxxxxx  xxxxxx

Verse 1  1:07-1:15 Just strum the chord until chorus

e-----------------------------------------------------
b-----------------------------------------------------
g-5---------------------------------------------------
d-x---------------------------------------------------
a-3---------------------------------------------------
e-----------------------------------------------------

Chorus  1:15-1:31

e-----------------------------------------------------
b-----------------------------------------------------
g-5---------------------------------------------------
d-5(x8)-5-----3---------------------------------------X4
a-3-----5(x4)-3(x4)-----------------------------------
e-------3-----1---------------------------------------

Interlude  1:31-1:39

e-----------------------------------------------------
b-----------------------------------------------------
g-----------------------------------------------------
d---2-0-2--2---2-0-2---2---2-0-2---2---2-0-2---2------
a-3-------3--3-------3---3-------3---3-------3---3----
e-----------------------------------------------------

Verse 3  1:40-1:48 all palm muting with very fast strumming

e-----------------------------------------------------
b-----------------------------------------------------
g-5555-55-5555----------------------------------------
d-5555-55-5555-5555-77-3333---------------------------X2
a-3333-33-3333-5555-77-3333---------------------------
e--------------3333-55-1111---------------------------
  xxxx xx xxxx xxxx xx xxx

Verse 4  1:48-1:55 all palm muting with very fast strumming like verse 3

e-----------------------------------------------------
b-----------------------------------------------------
g-5555-55-5555----------------------------------------
d-5555-55-5555-5555-33-3333---------------------------X2
a-3333-33-3333-5555-33-3333---------------------------
e--------------3333-11-1111---------------------------
  xxxx xx xxxx xxxx xx xxxx

Chorus  1:56-2:27 

e-----------------------------------------------------
b-----------------------------------------------------
g-5---------------------------------------------------
d-5(x8)-5-----3---------------------------------------X8
a-3-----5(x4)-3(x4)-----------------------------------
e-------3-----1---------------------------------------

Last Chord  2:28-2:33

e-----------------------------------------------------
b-----------------------------------------------------
g-5~--------------------------------------------------
d-5~--------------------------------------------------
a-3~--------------------------------------------------
e-----------------------------------------------------

I hope you enjoy this tab!

later
Guitar Tabs FROM THE TOP 60 ARTISTS
1.  AC/DC Guitar Tabs
2.  AEROSMITH Guitar Tabs
3.  ALANIS MORISSETTE Guitar Tabs
4.  BEATLES Guitar Tabs
5.  BLINK 182 Guitar Tabs
6.  BOB DYLAN Guitar Tabs
7.  BOB MARLEY Guitar Tabs
8.  BUSH Guitar Tabs
9.  COLDPLAY Guitar Tabs
10.  DAVE MATTHEWS Guitar Tabs
11.  ERIC CLAPTON Guitar Tabs
12.  GRATEFUL Dead Guitar Tabs
13.  GREEN DAY Guitar Tabs
14.  IRON MAIDEN Guitar Tabs
15.  JACK JOHNSON Guitar Tabs
16.  JIMI HENDRIX Guitar Tabs
17.  JOHN MAYER Guitar Tabs
18.  JOHNNY CASH Guitar Tabs
19.  LED ZEPPELIN Guitar Tabs
20.  LIMP BIZKIT Guitar Tabs
21.  METALLICA Guitar Tabs
22.  NEIL YOUNG Guitar Tabs
23.  NIRVANA Guitar Tabs
24.  PEARL JAM Guitar Tabs
25.  PINK FLOYD Guitar Tabs
26.  RADIOHEAD Guitar Tabs
27  RED HOT CHILI PEPPERS Guitar Tabs
28  ROLLING STONES Guitar Tabs
29  STONE TEMPLE PILOTS Guitar Tabs
30  U2 Guitar Tabs
31.  VAN HALEN Guitar Tabs
32.  WEEZER Guitar Tabs