Guitar Resources


Dumpweed (2) (By BLINK 182)
 
From: "THE GREAT CORNHOLIO" <the_great_cornholio_@hotmail.com>
Date: Tue, 27 Mar 2001 13:05:37 -0500
From: "resiak" <vector2uk@hotmail.com>
Subject: b/blink_182/dumpweed.tab
Date: Fri, 25 Jan 2002 12:27:01 -0000

Title: Dumpweed
Artist: Blink 182

---

Intro:
E:-------------------------------
B:-------------------------------
G:-------------------------------
D:-6-6h7p6-----4----6-6h7p6-----4
A:-------------------------------
E:0--------7-5--5--0--------7-5--


E:------------------------------
B:------------------------------
G:------------------------------
D:-6-6h7p6-----4---6-6h7p6--9---
A:0---------------0----------0-9
E:---------7-5--5---------------

Okay this fingering and picking may seem hard at first, but once you get
into the swing of it it's really really easy, and lets you play it so
fast it sounds impossible.

I'm using "d" to mean Downstroke and "u" to mean upstroke. I can't use
the proper symbols, they don't fit.

(d) is on the first time through only.

 (d)  d u     d u     d u     d u     d u     d u     d u     d u
E:4p0---0h4p0---0h2p0---0h2p0---0h4p0---0h4p0---0h5p0---0h5p0---0
B:----0-------0-------0-------0-------0-------0-------0-------0--
G:---------------------------------------------------------------
D:---------------------------------------------------------------
A:---------------------------------------------------------------
E:---------------------------------------------------------------

Verse:
E:---------------------------------------------------
B:---------------------------------------------------
G:---------------------------------------------------
D:----------44444----------44444-2222222-44444-222222
A:222222222-22222-22222222-22222-0000000-22222-000000
E:000000000-------00000000---------------------------
p.m._____________________________ ___________________

Chorus:
E:-----------------------------------------------
B:-----------------------------------------------
G:-----------4444444444-2222222222222-44444444444
D:2222222222-4444444444-2222222222222-44444444444
A:2222222222-2222222222-0000000000000-22222222222
E:0000000000-------------------------------------

Outro (pick all notes that aren't pulloffs or hammerons)

E:4p0---0---2p0---0---4p0---0---5p0---0---
B:----0---0-----0---0-----0---0-----0---0-
G:----------------------------------------
D:----------------------------------------
A:----------------------------------------
E:----------------------------------------

E:4p0---0---2p0---0---4p0---0---5p0---0h2-
B:----0---0-----0---0-----0---0-----0-----
G:----------------------------------------
D:----------------------------------------
A:----------------------------------------
E:----------------------------------------

E:4p0---0---2p0---0---4p0---0---5p0---0---
B:----0---0-----0---0-----0---0-----0---0-
G:----------------------------------------
D:----------------------------------------
A:----------------------------------------
E:----------------------------------------

E:4p0---0---2p0---0---4p0---0---5p0---0---
B:----0---0-----0---0-----0---0-----0-----
G:----------------------------------------
D:----------------------------------------
A:----------------------------------------
E:----------------------------------------
Guitar Tabs FROM THE TOP 60 ARTISTS
1.  AC/DC Guitar Tabs
2.  AEROSMITH Guitar Tabs
3.  ALANIS MORISSETTE Guitar Tabs
4.  BEATLES Guitar Tabs
5.  BLINK 182 Guitar Tabs
6.  BOB DYLAN Guitar Tabs
7.  BOB MARLEY Guitar Tabs
8.  BUSH Guitar Tabs
9.  COLDPLAY Guitar Tabs
10.  DAVE MATTHEWS Guitar Tabs
11.  ERIC CLAPTON Guitar Tabs
12.  GRATEFUL Dead Guitar Tabs
13.  GREEN DAY Guitar Tabs
14.  IRON MAIDEN Guitar Tabs
15.  JACK JOHNSON Guitar Tabs
16.  JIMI HENDRIX Guitar Tabs
17.  JOHN MAYER Guitar Tabs
18.  JOHNNY CASH Guitar Tabs
19.  LED ZEPPELIN Guitar Tabs
20.  LIMP BIZKIT Guitar Tabs
21.  METALLICA Guitar Tabs
22.  NEIL YOUNG Guitar Tabs
23.  NIRVANA Guitar Tabs
24.  PEARL JAM Guitar Tabs
25.  PINK FLOYD Guitar Tabs
26.  RADIOHEAD Guitar Tabs
27  RED HOT CHILI PEPPERS Guitar Tabs
28  ROLLING STONES Guitar Tabs
29  STONE TEMPLE PILOTS Guitar Tabs
30  U2 Guitar Tabs
31.  VAN HALEN Guitar Tabs
32.  WEEZER Guitar Tabs