Guitar Resources


Dumpweed (By BLINK 182)
 
-------------------------------------------------------------------------------
                            DUMPWEED - Blink 182
-------------------------------------------------------------------------------

Tabbed by: DirtyScary-petev@hotmail.com

h=hammer on
p=pull off

Riff1:
E                   E                  A                    A
-----------------------------------------------------------------------------
-----------------------------------------------------------------------------
1--1-1h2p1----------1--1-1h2p1---------2--1-1h2p1-----------2--1-1h2p1-4-----
2--------------4----2---------------4--2---------------4----2--------------4-
2----------2-0---0--2-----------2-0----0-----------2-0---0--0------------0---
0-------------------0--------------------------------------------------------

Riff2:
    E              A               B
-[4]-4p0---4-4p0---2-2p0---2-2p0---4-4p0---4-4p0---5-5p0---5-5p0--------
---------0-------0-------0-------0-------0-------0-------0-------0------
------------------------------------------------------------------------play
------------------------------------------------------------------------twice
------------------------------------------------------------------------
------------------------------------------------------------------------

Play [4] second time only

  VERSE 1: (p.m. throught--well.. mostly)
 E                   B
   its understood, I said it many ways
 E                   B
   To scared to run, I'm too scared to stay
 A                   B
   I said I'd leave  I could never leave her
 A                   B
   If I did      you know I'd never cheat her

 repeat guitar part over second part of verse


Riff 1

Chorus:
 E                   B
   She's a dove      she's a fucking nightmare
 A                   B
   Unpredictable its my mistake to stay here
 E                   B              A
   on the go and its way to late to play
            B         B
   I need a girl that I can train


Riff 2 (start on "train")

Verse 2

Riff1

Double chorus

Outro:
the "need a girl that I can train" part is sung over the verse guitar
part then the bass continues playing the verse part but the guitar plays
this:

p.m.
--4-0----0------2-0----0-----4-0----0------5-0----0-[2]-
------0-----0-------0----0-------0-----0-------0-----0--
-------------------------------------------------------- play 4
--------------------------------------------------------times
--------------------------------------------------------
--------------------------------------------------------

play [2] instead of the 0 the second time through and play neither
 the fourth (last) time through

=============================================================================

Guitar Tabs FROM THE TOP 60 ARTISTS
1.  AC/DC Guitar Tabs
2.  AEROSMITH Guitar Tabs
3.  ALANIS MORISSETTE Guitar Tabs
4.  BEATLES Guitar Tabs
5.  BLINK 182 Guitar Tabs
6.  BOB DYLAN Guitar Tabs
7.  BOB MARLEY Guitar Tabs
8.  BUSH Guitar Tabs
9.  COLDPLAY Guitar Tabs
10.  DAVE MATTHEWS Guitar Tabs
11.  ERIC CLAPTON Guitar Tabs
12.  GRATEFUL Dead Guitar Tabs
13.  GREEN DAY Guitar Tabs
14.  IRON MAIDEN Guitar Tabs
15.  JACK JOHNSON Guitar Tabs
16.  JIMI HENDRIX Guitar Tabs
17.  JOHN MAYER Guitar Tabs
18.  JOHNNY CASH Guitar Tabs
19.  LED ZEPPELIN Guitar Tabs
20.  LIMP BIZKIT Guitar Tabs
21.  METALLICA Guitar Tabs
22.  NEIL YOUNG Guitar Tabs
23.  NIRVANA Guitar Tabs
24.  PEARL JAM Guitar Tabs
25.  PINK FLOYD Guitar Tabs
26.  RADIOHEAD Guitar Tabs
27  RED HOT CHILI PEPPERS Guitar Tabs
28  ROLLING STONES Guitar Tabs
29  STONE TEMPLE PILOTS Guitar Tabs
30  U2 Guitar Tabs
31.  VAN HALEN Guitar Tabs
32.  WEEZER Guitar Tabs