Guitar Resources


Every Time I Look For You (2) (By BLINK 182)
 
Date: Wed, 2 Jul 2003 19:58:46 -0700 (PDT)
From: Jake Forsberg <jimmy_dink@yahoo.com>
Subject: b/blink_182/every_time_i_look_for_you.tab

Song: Every Time I Look For You
Artist: Blink 182
Album: Take Off Your Pants and Jacket
Tuning: Standard

Tabbed by Jake Forsberg


x - mute string

D - downstrum

U - upstrum


 
 INTRO:

e|------------------------------|
b|------------------------------|
g|-4-4--4-4-4--4--4-4--4-4-4--4-| (x8)
d|-x-x--x-x-x--x--x-x--x-x-x--x-|
a|-2-2--2-2-2--2--2-2--2-2-2--2-|
e|------------------------------|

Never found out why you left him.....


 
 RIFF 1: 0:22

e|------------------------------------------------------------------|
b|------------------------------------------------------------------|
g|------------------------------------------------------------------|
d|-----2-1-----2-1-----2-1-------1------2-1-----2-1-----2-1-------1-|
a|-2-2-------2-------2-----2-2-4----2-2-------2-------2-----2-2-4---|
e|------------------------------------------------------------------|

 

*bass plays verse - first note of verses implied by guitar:

e|---------|
b|---------|
g|---4-----|
d|---x-----|
a|---2-----|
e|---------|
  (let ring through verse)

     Young and stupid........


RIFF 2: 0:37

e|---------------------------------------------------------------|
b|---7-------7-------7-------7-------7-------7-------7-------7---|
g|-----8-------8-------8-------8-------8-------8-------8-------8-|
d|-9-------9-------9-------9-------9-------9-------9-------9-----|
a|---------------------------------------------------------------|
e|---------------------------------------------------------------|
 
   Span the distance.....

 

 CHORUS PART A: 0:45

e|--------------------------
b|--------------------------
g|-4--4-4--4-4--4--4-4--4-4-
d|-x--x-x--x-x--x--x-x--x-x- (x8)
a|-2--2-2--2-2--2--2-2--2-2-
e|--------------------------
   D  D U  U D  D  D U  U D         

  Everytime I look for you the sun goes down....


 
CHORUS PART B: 0:59

e|-----------------------------------------------------------------|
b|-----------------------------------------------------------------|
g|-----------------------------------------------------------------|
d|-2-2-2-2-2-2-2-2-2-2-2-2-2-2-2-2-2-2-2-2-2-2-2-2-2-2-2-2-2-2-2-2-|
a|-2-2-2-2-2-2-2-2-2-2-2-2-2-2-2-2-2-2-2-2-2-2-2-2-2-2-2-2-2-2-2-2-|
e|-0-0-0-0-0-0-0-0-0-0-0-0-0-0-0-0-0-0-0-0-0-0-0-0-0-0-0-0-0-0-0-0-|

   more............Will the last one out please shut the door

 


 BRIDGE RIFF: 1:44

e|---------------------------------------------------------------
b|---------------------------------------------------------------
g|-4-4-4-4-4-4-4-4-4-4-4-4-4-4-4-4--8-8-8-8-8-8-8-8--11-11-11-11-
d|-x-x-x-x-x-x-x-x-x-x-x-x-x-x-x-x--x-x-x-x-x-x-x-x---x--x--x--x-
a|-2-2-2-2-2-2-2-2-2-2-2-2-2-2-2-2--6-6-6-6-6-6-6-6---9--9--9--9-
e|---------------------------------------------------------------


e|-----------------------------------------------------------------|
b|-----------------------------------------------------------------|
g|-9-9-9-9-9-9-9-9-9-9-9-9-9-9-9-9-9-9-9-9-9-9-9-9-9-9-9-9-9-9-9-9-|
d|-x-x-x-x-x-x-x-x-x-x-x-x-x-x-x-x-x-x-x-x-x-x-x-x-x-x-x-x-x-x-x-x-|
a|-7-7-7-7-7-7-7-7-7-7-7-7-7-7-7-7-7-7-7-7-7-7-7-7-7-7-7-7-7-7-7-7-|
e|-----------------------------------------------------------------|


END ON:

e|----------|
b|----------|
g|-4--4-----|
d|-x--x--2--|
a|-2--2--2--|
e|-------0--|
      (let ring)

 

 

ORDER:::

INTRO
RIFF 1         
IMPLIED VERSE
RIFF 2
CHORUS PART A  
CHORUS PART B  
RIFF 1         
IMPLIED VERSE
RIFF 2
CHORUS PART A
CHORUS PART B
BRIDGE RIFF x2 (clean)
BRIDGE RIFF x4 (distorted)
CHORUS PART A x2
END


If you can't tell, this is my first tab.  It'S all my own work so if you
have any
suggestions, especially RIFF 2 because it is hard to hear, send me some
mail:
jimmy_dink@yahoo.com   Kick back and have some fun with this
song....laters

 

 

________________________________________________________________________________
Guitar Tabs FROM THE TOP 60 ARTISTS
1.  AC/DC Guitar Tabs
2.  AEROSMITH Guitar Tabs
3.  ALANIS MORISSETTE Guitar Tabs
4.  BEATLES Guitar Tabs
5.  BLINK 182 Guitar Tabs
6.  BOB DYLAN Guitar Tabs
7.  BOB MARLEY Guitar Tabs
8.  BUSH Guitar Tabs
9.  COLDPLAY Guitar Tabs
10.  DAVE MATTHEWS Guitar Tabs
11.  ERIC CLAPTON Guitar Tabs
12.  GRATEFUL Dead Guitar Tabs
13.  GREEN DAY Guitar Tabs
14.  IRON MAIDEN Guitar Tabs
15.  JACK JOHNSON Guitar Tabs
16.  JIMI HENDRIX Guitar Tabs
17.  JOHN MAYER Guitar Tabs
18.  JOHNNY CASH Guitar Tabs
19.  LED ZEPPELIN Guitar Tabs
20.  LIMP BIZKIT Guitar Tabs
21.  METALLICA Guitar Tabs
22.  NEIL YOUNG Guitar Tabs
23.  NIRVANA Guitar Tabs
24.  PEARL JAM Guitar Tabs
25.  PINK FLOYD Guitar Tabs
26.  RADIOHEAD Guitar Tabs
27  RED HOT CHILI PEPPERS Guitar Tabs
28  ROLLING STONES Guitar Tabs
29  STONE TEMPLE PILOTS Guitar Tabs
30  U2 Guitar Tabs
31.  VAN HALEN Guitar Tabs
32.  WEEZER Guitar Tabs