Guitar Resources


Everytime I Look 4 U (By BLINK 182)
 
----------------------------------------------------------------------
BLINK 182 - EVERY TIME I LOOK 4 YOU
----------------------------------------------------------------------
  Tabbed by vivien.g
  If is there any mistakes mail to me on takeoff_182@hotmail.com
----------------------------------------------------------------------


CHORD CHART:
	E	B	
E|--------------------------------------------------------------------
B|--------------------------------------------------------------------
G|--------------4-----------------------------------------------------
D|------2-------4-----------------------------------------------------
A|------2-------2-----------------------------------------------------
E|------0-------------------------------------------------------------

~ = let ring
x = palm mute



Intro:
      B~
	I never found out why you left him
      B~
	But this answer begs that question
      B~
	Too blind to see tomorrow
      B~
	Too broke to beg or borrow

	Young and stupid

	Left wide open

	Hearts are wasted

	Lives are broken


Riff 1:
E|--------------------------------------------------------------------
B|--------------------------------------------------------------------
G|--------------------------------------------------------------------
D|-1---2-1----2-1----2-1------1--1---2-1----2-1----2-1------1---------
A|---2------2------2------2-4------2------2------2------2-4----2~-----
E|--------------------------------------------------------------------


Verse:
	One more point of contention

	I need some intervention

	Approched with vague intentions

	Betray my short attention


Riff 2:
E|--------------------------------------------------------------------
B|---0-2-4---0-2-4---0-2-4---0-4-0-----0-2-4---0-2-4---0-2-4---0-4-0--
G|--------------------------------------------------------------------
D|--------------------------------------------------------------------
A|-2---------------------------------2--------------------------------
E|--------------------------------------------------------------------
	Span the distance
	Bridge the border
	Beg forgiveness
	Round the corner


Chorus:	
      B~
	Everytime I look for you the sun goes down
      B~
	And I stumble when this all thing runs aground
      B~
	I left another message, you are never around
      B~                                                     E
	But everytime I look for you the sun goes down once more

	Will the last one out please shut the door


-- Riff 1 --


	More time apart will give

	A few more month to argue

	Is this too much to live through ?

	It always seemed too far to


-- Riff 2 --
	Drive the point home
	Send more letters
	Pray tomorrow
	Ends up better


-- Chorus --


Riff 3: X 2
E|--------------------------------------------------------------------
B|--------------------------------------------------------------------
G|-44444444-888888-1111-9999999999999999-44444444-888888-1111---------
D|-44444444-888888-1111-9999999999999999-44444444-888888-1111---------
A|-22222222-666666--9-9-7777777777777777-22222222-666666--9-9---------
E|--------------------------------------------------------------------

E|--------------------------------------------------------------------
B|--------------------------------------------------------------------
G|-999999999999999----------------------------------------------------
D|-999999999999999----------------------------------------------------
A|-777777777777777----------------------------------------------------
E|--------------------------------------------------------------------


-- Riff 3 -- X 2
	I never did do anything that she asked
	I never let what happened stay in the past
	I never did quite understand what she meant
	In spite of everything
	In spite of everything

	
-- Chorus --
      B~
	Everytime I look for you the sun goes down
      B~
	And I stumble when this all thing runs aground
      B~
	I left another message, you are never around
      B~
	But everytime I look for you the sun goes down
      B~
	And I stumble when this all thing runs aground
      B~
	I left another message, you are never around
      B~
	But everytime I look for you the sun goes down


End on B
Guitar Tabs FROM THE TOP 60 ARTISTS
1.  AC/DC Guitar Tabs
2.  AEROSMITH Guitar Tabs
3.  ALANIS MORISSETTE Guitar Tabs
4.  BEATLES Guitar Tabs
5.  BLINK 182 Guitar Tabs
6.  BOB DYLAN Guitar Tabs
7.  BOB MARLEY Guitar Tabs
8.  BUSH Guitar Tabs
9.  COLDPLAY Guitar Tabs
10.  DAVE MATTHEWS Guitar Tabs
11.  ERIC CLAPTON Guitar Tabs
12.  GRATEFUL Dead Guitar Tabs
13.  GREEN DAY Guitar Tabs
14.  IRON MAIDEN Guitar Tabs
15.  JACK JOHNSON Guitar Tabs
16.  JIMI HENDRIX Guitar Tabs
17.  JOHN MAYER Guitar Tabs
18.  JOHNNY CASH Guitar Tabs
19.  LED ZEPPELIN Guitar Tabs
20.  LIMP BIZKIT Guitar Tabs
21.  METALLICA Guitar Tabs
22.  NEIL YOUNG Guitar Tabs
23.  NIRVANA Guitar Tabs
24.  PEARL JAM Guitar Tabs
25.  PINK FLOYD Guitar Tabs
26.  RADIOHEAD Guitar Tabs
27  RED HOT CHILI PEPPERS Guitar Tabs
28  ROLLING STONES Guitar Tabs
29  STONE TEMPLE PILOTS Guitar Tabs
30  U2 Guitar Tabs
31.  VAN HALEN Guitar Tabs
32.  WEEZER Guitar Tabs