Guitar Resources


Family Reunion (By BLINK 182)
 
-------------------------------------------------------------------------------
                               FAMILY REUNION - Blink 182
-------------------------------------------------------------------------------

By: Dan Weiss (Foo1eighty2@aol.com)

this song is definitly the most artistic song blink 182 has ever
written.  It is poetic and i can relate to the lyrics.  It is a true
masterpiece.

*=Let ring

Intro       Second part, palm muted, strummed 8 times each
e|-------I-------------------------------------------------------------------|
B|-------I-------------------------------------------------------------------|
G|-2-2-*-I-2-4-6-7-----------------------------------------------------------|
D|-2-2---I-2-4-6-7-----------------------------------------------------------|
A|-0-0---I-0-2-4-5-----------------------------------------------------------|
E|-------I-------------------------------------------------------------------|

3rd part
e|---------------------------------------------------------------------------|
B|-----2-----2-----2-----2---------------------------------------------------|
G|-2-2---4-4---6-6---7-7-----------------------------------------------------|
D|-2-2---4-4---6-6---7-7-----------------------------------------------------|
A|-0-0---2-2---4-4---5-5-----------------------------------------------------|
E|---------------------------------------------------------------------------|

4th part, strummed 8 times, pounded, distorted     Ending
e|---------------------------------------------I-----------------------------|
B|---------------------------------------------I-----------------------------|
G|-2-4-6-7-------------------------------------I-2*--------------------------|
D|-2-4-6-7-------------------------------------I-2--2------------------------|
A|-0-2-4-5-------------------------------------I-0--2------------------------|
E|---------------------------------------------I----0------------------------|

Thats it, best if played if u use my tab cuz my tab kicks ass.  Email me for 
questions or comments.  Also email me iF you need drugs.  im not funny

-------------------------------------------------------------------------------
Guitar Tabs FROM THE TOP 60 ARTISTS
1.  AC/DC Guitar Tabs
2.  AEROSMITH Guitar Tabs
3.  ALANIS MORISSETTE Guitar Tabs
4.  BEATLES Guitar Tabs
5.  BLINK 182 Guitar Tabs
6.  BOB DYLAN Guitar Tabs
7.  BOB MARLEY Guitar Tabs
8.  BUSH Guitar Tabs
9.  COLDPLAY Guitar Tabs
10.  DAVE MATTHEWS Guitar Tabs
11.  ERIC CLAPTON Guitar Tabs
12.  GRATEFUL Dead Guitar Tabs
13.  GREEN DAY Guitar Tabs
14.  IRON MAIDEN Guitar Tabs
15.  JACK JOHNSON Guitar Tabs
16.  JIMI HENDRIX Guitar Tabs
17.  JOHN MAYER Guitar Tabs
18.  JOHNNY CASH Guitar Tabs
19.  LED ZEPPELIN Guitar Tabs
20.  LIMP BIZKIT Guitar Tabs
21.  METALLICA Guitar Tabs
22.  NEIL YOUNG Guitar Tabs
23.  NIRVANA Guitar Tabs
24.  PEARL JAM Guitar Tabs
25.  PINK FLOYD Guitar Tabs
26.  RADIOHEAD Guitar Tabs
27  RED HOT CHILI PEPPERS Guitar Tabs
28  ROLLING STONES Guitar Tabs
29  STONE TEMPLE PILOTS Guitar Tabs
30  U2 Guitar Tabs
31.  VAN HALEN Guitar Tabs
32.  WEEZER Guitar Tabs