Guitar Resources


First Date (2) (By BLINK 182)
 
Date: Sun, 26 Aug 2001 17:48:37 -0400
From: emo925@merle.it.northwestern.edu (by way of cathal woods)
Subject: b/blink_182/first_date.crd

Artist: Blink 182
Song: First Date
Album: Take Off Your Pants and Jacket
Tabbed by: Eric Ocasio (erector@writemail.com)

Standard tuning

I was surprised not to see this song up already so I went and did it myself.
If you have any suggestions or comments please email me.  This is all my own
work.

Intro:

Guitar 1
E |-0---------0---------0---------0-----------
B |---3---------3---------3---------3---3-----
G |-----5-5-5-----5-5-5-----5-5-5-----5-------
D |-------------------------------------------
A |-------------------------------------------
E |-------------------------------------------

E |-0---------0---------0---------0-----------
B |---3---------3---------3---------3---3-----
G |-----5-5-5-----5-5-5-----5-5-5-----5-----5-
D |-------------------------------------------
A |-------------------------------------------
E |-------------------------------------------
                           (Let last note ring)

While guitar 2 plays this
E |-------------------------------------------
B |-------------------------------------------
G |-5-5-5-5-5-5-5-5-5-5-5-5-5-5-5-5-5-5-4-----
D |-5-5-5-5-5-5-5-5-5-5-5-5-5-5-5-5-5-5-4-----
A |-3-3-3-3-3-3-3-3-3-3-3-3-3-3-3-3-3-3-2-----
E |-------------------------------------------

E |-------------------------------------------
B |-------------------------------------------
G |-5-5-5-5-5-5-5-5-5-5-5-5-5-5-5-5-5-5-4---5-
D |-5-5-5-5-5-5-5-5-5-5-5-5-5-5-5-5-5-5-4---5-
A |-3-3-3-3-3-3-3-3-3-3-3-3-3-3-3-3-3-3-2---3-
E |-------------------------------------------

Verse/Fill:

This is just repeated over and over PALM MUTED
E |-----------
B |-----------
G |-5-5-5-----
D |-----------
A |-----------
E |-----------

Pre-Chorus:

E |---------------------------------------------------
B |---------------------------------------------------
G |-5-5-5----4-4-4----2-2-2-2-2-2-2-2-----------------
D |-5-5-5----4-4-4----2-2-2-2-2-2-2-2-3-3-3-3-5-5-5-5-
A |-3-3-3----2-2-2----0-0-0-0-0-0-0-0-3-3-3-3-5-5-5-5-
E |-----------------------------------1-1-1-1-3-3-3-3-

Chorus:

E |-------------------------------------------------------------------
B |-------------------------------------------------------------------
G |-5-5-5-5-5-5-5-5-5-4-4-4-4-4-4-4-4-2-2-2-2-2-2-2-2-----------------
D |-5-5-5-5-5-5-5-5-5-4-4-4-4-4-4-4-4-2-2-2-2-2-2-2-2-3-3-3-3-5-5-5-5-
A |-3-3-3-3-3-3-3-3-3-2-2-2-2-2-2-2-2-0-0-0-0-0-0-0-0-3-3-3-3-5-5-5-5-
E |---------------------------------------------------1-1-1-1-3-3-3-3-

Interlude:
   <------------------- PALM MUTED!! ---------------------------->
E |---------------------------------------------------------------
B |---------------------------------------------------------------
G |-5--5-5-5-5-5-5------------------------------------------------
D |-5--5-5-5-5-5-5--2-2-2-2-2-2-2--3-3-3-3-3-3-3--5-5-5-5-5-5-5-5-
A |-3--3-3-3-3-3-3--2-2-2-2-2-2-2--3-3-3-3-3-3-3--5-5-5-5-5-5-5-5-
E |-----------------0-0-0-0-0-0-0--1-1-1-1-1-1-1--3-3-3-3-3-3-3-3-

Then this comes in on top of the above palm muted part:

E |--------------------------------------------------------------------
B |--------------------------------------------------------------------
G |-5--5-5-5-5-5-5--9-9-9-9-9-5-5--10-10-10-10-10-5-5--7-7-7-7-7-7-7-7-
D |-x--x-x-x-x-x-x--x-x-x-x-x-x-x---x--x--x--x--x-x-x--x-x-x-x-x-x-x-x-
A |-3--3-3-3-3-3-3--7-7-7-7-7-3-3---8--8--8--8--8-3-3--5-5-5-5-5-5-5-5-
E |--------------------------------------------------------------------


Order:

Intro
Verse/Fill 16x (only for second part of verse)
Pre-Chorus 2x
Chorus 2x
Intro
Verse/Fill 16x (only for second part of verse)
Pre-Chorus 2x
Chorus 2x
Interlude 2x (only palm muted part)
Interlude 4x (both parts)
Pre-Chorus 2x
Chorus 2x
Chorus 2x w/ Intro (only including first guitar part)


ENJOY and email me any suggestions or comments!
Guitar Tabs FROM THE TOP 60 ARTISTS
1.  AC/DC Guitar Tabs
2.  AEROSMITH Guitar Tabs
3.  ALANIS MORISSETTE Guitar Tabs
4.  BEATLES Guitar Tabs
5.  BLINK 182 Guitar Tabs
6.  BOB DYLAN Guitar Tabs
7.  BOB MARLEY Guitar Tabs
8.  BUSH Guitar Tabs
9.  COLDPLAY Guitar Tabs
10.  DAVE MATTHEWS Guitar Tabs
11.  ERIC CLAPTON Guitar Tabs
12.  GRATEFUL Dead Guitar Tabs
13.  GREEN DAY Guitar Tabs
14.  IRON MAIDEN Guitar Tabs
15.  JACK JOHNSON Guitar Tabs
16.  JIMI HENDRIX Guitar Tabs
17.  JOHN MAYER Guitar Tabs
18.  JOHNNY CASH Guitar Tabs
19.  LED ZEPPELIN Guitar Tabs
20.  LIMP BIZKIT Guitar Tabs
21.  METALLICA Guitar Tabs
22.  NEIL YOUNG Guitar Tabs
23.  NIRVANA Guitar Tabs
24.  PEARL JAM Guitar Tabs
25.  PINK FLOYD Guitar Tabs
26.  RADIOHEAD Guitar Tabs
27  RED HOT CHILI PEPPERS Guitar Tabs
28  ROLLING STONES Guitar Tabs
29  STONE TEMPLE PILOTS Guitar Tabs
30  U2 Guitar Tabs
31.  VAN HALEN Guitar Tabs
32.  WEEZER Guitar Tabs