Guitar Resources


First Date (4) (By BLINK 182)
 
----------------------------------------------------------------------
BLINK 182 - FIRST DATE
----------------------------------------------------------------------
   Tabbed by vivien.g => la xavière c d enculés
   If is there any mistakes mail me on takeoff_182@hotmail.com
----------------------------------------------------------------------


CHORD CHART:
	F	?	G	C	A
E|--------------------------------------------------------------------
B|--------------------------------------------------------------------
G|--------------5---------------5-------------------------------------
D|------3-------5-------5-------5-------7-----------------------------
A|------3-------2-------5-------3-------7-----------------------------
E|------1---------------3---------------5-----------------------------

~ = let ring
x = palm mute



Riff 1:
E|------------------------|
B|--5----3----6---3----0--|
G|---5-5--5-5--5-5-5-5----|
D|----5-5--5-5--5---5-----|
A|------------------------|
E|------------------------|


Verse:
      C~	
	In the car I just can't wait

	To pick you up on our very first date

	Is it cool if I hold your hand ?

	Is it wrong if I think it's lame to dance ?


E|---------|
B|---------|
G|---555---| Repeat Palm muted
D|---------|
A|---------|
E|---------|
	Do you like my stupid hair ?
	Would you guess that I didn't know what to wear ?
	I'm just scared of what you think
	You make me nervous so I can't eat.


Chorus:
      C
	Let's go
      ?
	Don't wait
      A             F      G
	This nights almost over
      C         ?          A          F       G
	Honest, let's make this night last forever.
      C         ?
	Forever and ever
      A                 F       G
	Let's make this last forever
      C         ?        A                F       G
	Forever and ever. Let's make this last forever.


-- Riff 1 --


Verse:
     C~
	When you smile, I melt inside

	I'm not worthy for a minute of your time

	I really wish it was only me and you.

	I'm jealous of everybody in the room.

E|---------|
B|---------|
G|--555----| Repeat Palm muted
D|---------|
A|---------|
E|---------|
	Please don't look at me with those eyes
	Please don't hint that you're capable of lies
	I dread the though of our very first kiss
	A target that I'm probably gonna miss


-- Chorus --


Riff 2: (Palm muted)
E|--------------------------------------------------------------------
B|--------------------------------------------------------------------
G|-55555555-------------------------55555555--------------------------
D|-55555555-2222222-3333333-5555555-55555555-2222222-3333333-5555555--
A|-33333333-2222222-3333333-5555555-33333333-2222222-3333333-5555555--
E|----------0000000-1111111-3333333----------0000000-1111111-3333333--


Riff 3: X 4
E|--------------------------------------------------------------------
B|--------------------------------------------------------------------
G|-5555555---9999---555---101010---555---7777777----------------------
D|-5555555---9999---555---101010---555---7777777----------------------
A|-3333333---7777---333---8-8-8----333---5555555----------------------
E|--------------------------------------------------------------------


-- Chorus --

End on C
Guitar Tabs FROM THE TOP 60 ARTISTS
1.  AC/DC Guitar Tabs
2.  AEROSMITH Guitar Tabs
3.  ALANIS MORISSETTE Guitar Tabs
4.  BEATLES Guitar Tabs
5.  BLINK 182 Guitar Tabs
6.  BOB DYLAN Guitar Tabs
7.  BOB MARLEY Guitar Tabs
8.  BUSH Guitar Tabs
9.  COLDPLAY Guitar Tabs
10.  DAVE MATTHEWS Guitar Tabs
11.  ERIC CLAPTON Guitar Tabs
12.  GRATEFUL Dead Guitar Tabs
13.  GREEN DAY Guitar Tabs
14.  IRON MAIDEN Guitar Tabs
15.  JACK JOHNSON Guitar Tabs
16.  JIMI HENDRIX Guitar Tabs
17.  JOHN MAYER Guitar Tabs
18.  JOHNNY CASH Guitar Tabs
19.  LED ZEPPELIN Guitar Tabs
20.  LIMP BIZKIT Guitar Tabs
21.  METALLICA Guitar Tabs
22.  NEIL YOUNG Guitar Tabs
23.  NIRVANA Guitar Tabs
24.  PEARL JAM Guitar Tabs
25.  PINK FLOYD Guitar Tabs
26.  RADIOHEAD Guitar Tabs
27  RED HOT CHILI PEPPERS Guitar Tabs
28  ROLLING STONES Guitar Tabs
29  STONE TEMPLE PILOTS Guitar Tabs
30  U2 Guitar Tabs
31.  VAN HALEN Guitar Tabs
32.  WEEZER Guitar Tabs