Guitar Resources


First Date Live (By BLINK 182)
 
-------------------------------------------------------------------------------
                           FIRST DATE (LIVE) - Blink-182
-------------------------------------------------------------------------------

Transcribed by: DW
Email: blinkthis_182@hotmail.com

ok i re did the tab cause i got a better look at the vid 
and realised i missed some things or did sm wrong,well here
it is the final tab for First Date live in Suffolk 2001.
Absolutely correct this is exactly how he played it live
i guarantee you,its such a good performance, best
live performance of it ive seen,anyways have fun.

-0-------------------0------------------|-------------------------------------
---1---1---3-1---1-----1---1---3-1---0--|-1-----------------------------------
-----0---0-----0---0-----0---0-----0----|-------------------------------------
----------------------------------------|-------------------------------------
----------------------------------------|-------------------------------------
----------------------------------------|-------------------------------------
 Guitar Riff 1 x2                          second time end on this note       

------------------------------------------------------------------------------
------------------------------------------------------------------------------
---555555555555555555555555555555---------------------------------------------
---555555555555555555555555555555---------------------------------------------
------------------------------------------------------------------------------
------------------------------------------------------------------------------
 palm muted riff half way through verse. gradually lift towards end           

------------------------------------------------------------------------------
------------------------------------------------------------------------------
--555--555-22222222-----------------------------------------------------------
--555--555-22222222-333-555---------------------------------------------------
--333--222-00000000-333-555---------------------------------------------------
--------------------111-333---------------------------------------------------
  pre chorus x2 `lets go dont wait this nights almost over..                  

------------------------------------------------------------------------------
------------------------------------------------------------------------------
-55555555-55555555-22222222---------------------------------------------------
-55555555-55555555-22222222-3-xx-5--------------------------------------------
-33333333-22222222-00000000-3-xx-5--------------------------------------------
----------------------------1-xx-3--------------------------------------------
 chorusx2 then riff 1 then verse riff and chorus again then                   

------------------------------------------------------------------------------
------------------------------------------------------------------------------
------------------------------------------------------------------------------
--55555555--------------------------------------------------------------------
--33333333--2222222-3333333-555555--------------------------------------------
------------0000000-1111111-333333--------------------------------------------
 the cool palm muted riff everyone loves x2                                   

--------------------------------------|---------------------------------------
--------------------------------------|---------------------------------------
-55555555-999-5555-101010-5555-777777-|---------------------------------------
-xxxxxxxx-xxx-xxxx--x-x-x-xxxx-xxxxxx-|---------------------------------------
-33333333-777-3333--8-8-8-3333-555555-|---------------------------------------
--------------------------------------|---------------------------------------
 second bit of interlude  then back to chorus and then second half or chorus  

------------------------------------------------------------------------------
------------------------------------------------------------------------------
-----------------------------------------5------------------------------------
-----------------------------------------5------------------------------------
-----------------------------------------3------------------------------------
------------------------------------------------------------------------------
 with riff 1 2 times then finish on this chord                                

-------------------------------------------------------------------------------
Guitar Tabs FROM THE TOP 60 ARTISTS
1.  AC/DC Guitar Tabs
2.  AEROSMITH Guitar Tabs
3.  ALANIS MORISSETTE Guitar Tabs
4.  BEATLES Guitar Tabs
5.  BLINK 182 Guitar Tabs
6.  BOB DYLAN Guitar Tabs
7.  BOB MARLEY Guitar Tabs
8.  BUSH Guitar Tabs
9.  COLDPLAY Guitar Tabs
10.  DAVE MATTHEWS Guitar Tabs
11.  ERIC CLAPTON Guitar Tabs
12.  GRATEFUL Dead Guitar Tabs
13.  GREEN DAY Guitar Tabs
14.  IRON MAIDEN Guitar Tabs
15.  JACK JOHNSON Guitar Tabs
16.  JIMI HENDRIX Guitar Tabs
17.  JOHN MAYER Guitar Tabs
18.  JOHNNY CASH Guitar Tabs
19.  LED ZEPPELIN Guitar Tabs
20.  LIMP BIZKIT Guitar Tabs
21.  METALLICA Guitar Tabs
22.  NEIL YOUNG Guitar Tabs
23.  NIRVANA Guitar Tabs
24.  PEARL JAM Guitar Tabs
25.  PINK FLOYD Guitar Tabs
26.  RADIOHEAD Guitar Tabs
27  RED HOT CHILI PEPPERS Guitar Tabs
28  ROLLING STONES Guitar Tabs
29  STONE TEMPLE PILOTS Guitar Tabs
30  U2 Guitar Tabs
31.  VAN HALEN Guitar Tabs
32.  WEEZER Guitar Tabs