Guitar Resources


Give Me One Good Reason (2) (By BLINK 182)
 
----------------------------------------------------------------------
BLINK 182 - GIVE ME ONE GOOD REASON
----------------------------------------------------------------------
   tabbed by vivien.g 
   If is there any mistakes mail me on takeoff_182@hotmail.com
----------------------------------------------------------------------


CHORD CHART:
	E	B	G#	A
E|------------------------------------------------------------
B|------------------------------------------------------------
G|--------------4---------------------------------------------
D|------2-------4-------6-------7-----------------------------
A|------2-------2-------6-------7-----------------------------
E|------0---------------4-------5-----------------------------

~ = let ring
x = palm mute
* = harmonics


Intro:
E|--------------------------------------------------------------------
B|--------------------------------------------------------------------
G|---1----1-----------------1----1----------------1----1--1-----------
D|--2----2-2---42---42-2---2----2-2---42---42-2----2----2-----22-22-2-
A|-2----2-----2----2--2---2----2-----2----2--2---4----4--4---0--0--0--
E|--------------------------------------------------------------------
   [________________________________________________________________]
				Clean

E|--------------------------------------------------------------------
B|--------------------------------------------------------------------
G|--1----1--1---------------------------------------------------------
D|---2----2-----44-44-------------------------------------------------
A|-4----4--4---2--2--2-------7777-------------------------------------
E|--------------------------------------------------------------------
   [__________________]      ****
	   Clean


Verse: (palm muted)
      E                   B
	Mom and Dad they quite don't understand it
      E                    B
	All the kids they laugh as if they planned it
      A                      B
	Why do girls want to pierce their nose
      A                    B
	And walk around in torn pantyhose, oh yeah


Riff 1:
E|--------------------------------------------------------------------
B|--------------------------------------------------------------------
G|--------1--------------------1--------------------------------------
D|-2222-----4444-1-2-2---2222----4444--1-2-2--------------------------
A|-2222-----4444---------2222----4444---------------------------------
E|-0000-----2222---------0000----2222---------------------------------

Verse: (palm muted)
      E                               B
	I like the ones who say they listen to the punk rock
      E                             B
	I like the kids who fight against how they were brought up
      A                                     B
	They hate the trends and think it's fucked to care
      A                                  B 
	It's cool when they piss people off with what they wear,oh yeah


-- Riff 1 --


Chorus:
      E           G#        B
	So give me one good reason
      E          G#    B            A
	Why we need to be like them
      E            G#          B
	Kids will have fun and offend
      E              G#         B           A
	They don't want to and don't fit in


-- Intro --


Verse: (palm muted)
      E                                  B
	Hate the jocks, the preps, the hippie-fuckin' scumbags
      E                              B
	Heavy-metallers with their awful, pussy hair bands
      A                       B
	Counting seconds until we can get away
      A                       B
	Ditchin' school almost every single day, oh yeah !


-- Riff 1 -- X 4


-- Chorus --


Riff 2:
E|--------------------------------------------------------------------
B|--------------------------------------------------------------------
G|-99-11-13-1414-13-999-444-99-444-99-11-13-1414-13-9-11111111-13-9---
D|-99-11-13-1414-13-999-444-99-444-99-11-13-1414-13-9-11111111-13-9---
A|-77-9--11-1212-11-777-222-77-222-77--9-11-1212-11-7-9-9-9-9--11-7---
E|--------------------------------------------------------------------

               1st    2nd
E|-------------|----|----------|
B|-------------|----|----------|
G|-11111111-13-|9---|--9-8-9---|
D|-11111111-13-|9---|--7-6-7---|
A|-9-9-9-9--11-|7---|--7-6-7---|
E|-------------|----|----------|



-- Chorus --


End on ~E~
Guitar Tabs FROM THE TOP 60 ARTISTS
1.  AC/DC Guitar Tabs
2.  AEROSMITH Guitar Tabs
3.  ALANIS MORISSETTE Guitar Tabs
4.  BEATLES Guitar Tabs
5.  BLINK 182 Guitar Tabs
6.  BOB DYLAN Guitar Tabs
7.  BOB MARLEY Guitar Tabs
8.  BUSH Guitar Tabs
9.  COLDPLAY Guitar Tabs
10.  DAVE MATTHEWS Guitar Tabs
11.  ERIC CLAPTON Guitar Tabs
12.  GRATEFUL Dead Guitar Tabs
13.  GREEN DAY Guitar Tabs
14.  IRON MAIDEN Guitar Tabs
15.  JACK JOHNSON Guitar Tabs
16.  JIMI HENDRIX Guitar Tabs
17.  JOHN MAYER Guitar Tabs
18.  JOHNNY CASH Guitar Tabs
19.  LED ZEPPELIN Guitar Tabs
20.  LIMP BIZKIT Guitar Tabs
21.  METALLICA Guitar Tabs
22.  NEIL YOUNG Guitar Tabs
23.  NIRVANA Guitar Tabs
24.  PEARL JAM Guitar Tabs
25.  PINK FLOYD Guitar Tabs
26.  RADIOHEAD Guitar Tabs
27  RED HOT CHILI PEPPERS Guitar Tabs
28  ROLLING STONES Guitar Tabs
29  STONE TEMPLE PILOTS Guitar Tabs
30  U2 Guitar Tabs
31.  VAN HALEN Guitar Tabs
32.  WEEZER Guitar Tabs