Guitar Resources


Give Me One Good Reason Live (By BLINK 182)
 
-------------------------------------------------------------------------------
                  GIVE ME ONE GOOD REASON (LIVE) - Blink-182
-------------------------------------------------------------------------------

Transcribed by: Dan Webster
Email: blinkthis_182@hotmail.com

this is easily one of the best songs,he played it live
with the adams song guitar so its tuned down one step
just to let you know,i could tell when he played some note
anyways its correct so have fun.

------------------------------------------------------------------------------
------------------------------------------------------------------------------
-----4---4-------0-----0-----4---4-------0-----0-----0-----0----0-----0-------
---5-------5---7-----7-----5-------5---7-----7-----9-----9----5-----5---------
-5-----5-----5-----5-----5-----5-----5-----5-----7-----7----3-----3-----------
------------------------------------------------------------------------------
   intro                                                                      

------------------------------------------------------------------------------
------------------------------------------------------------------------------
-----0-----0-----0------------------------------------------------------------
---9-----9-----7--------------------------------------------------------------
-7-----7-----5-----5^5^5^5^---------------------------------------------------
------------------------------------------------------------------------------

------------------------------------------------------------------------------
------------------------------------------------------------------------------
------------------------------------------------------------------------------
-------------------------77777-------77777-99999-55555-99999-77777------------
-------------------55555-55555-55555-55555-77777-33333-77777-55555------------
-------------------33333-------33333------------------------------------------
  verse all pm                                                                

------------------------------------------------------------------------------
------------------------------------------------------------------------------
-----------4h--------------------4h-------------------------------------------
-----55555----------4h5-5--55555-----------4h5-5------------------------------
-----55555---5-5-5---------55555----5-5-5-------------------------------------
-----33333-----------------33333----------------------------------------------
 fill 1      pmpmpm                 pmpmpm                                    

------------------------------------------------------------------------------
------------------------------------------------------------------------------
--------555555-999999999999--------555555-999999-777777-----------------------
-555555-555555-999999999999-555555-555555-999999-777777-----------------------
-555555-333333-777777777777-555555-333333-777777-555555-----------------------
-333333---------------------333333--------------------------------------------
 then play verse again then fill 1 then this is chorus x2 then intro,verse    

------------------------------------------------------------------------------
------------------------------------------------------------------------------
-121212-141414-161616-171717-1616-1414-121212--------121212-------------------
--x-x-x--x-x-x--x-x-x--x-x-x--x-x--x-x--x-x-x-121212--x-x-x-121212------------
-101010-121212-141414-151515-1414-1212-101010--x-x-x-101010--x-x-x------------
----------------------------------------------101010--------101010------------
 then chorus again then this the interlude x2                                 

------------------------------------------------------------------------------
------------------------------------------------------------------------------
-121212-141414-161616-171717-161616-131313-16-17-161616-131313-16-17-161616---
--x-x-x--x-x-x--x-x-x--x-x-x--x-x-x--x-x-x--x--x--x-x-x--x-x-x--x--x--x-x-x---
-101010-121212-141414-151515-141414-111111-14-15-141414-111111-14-15-141414---
------------------------------------------------------------------------------

------------------------------------------------------------------------------
------------------------------------------------------------------------------
------------------------------------------------------------------------------
----------------------------------------------------5-------------------------
----------------------------------------------------5-------------------------
----------------------------------------------------3-------------------------
 then theres a small silence then the chorus again and end on this chord      

-------------------------------------------------------------------------------
Guitar Tabs FROM THE TOP 60 ARTISTS
1.  AC/DC Guitar Tabs
2.  AEROSMITH Guitar Tabs
3.  ALANIS MORISSETTE Guitar Tabs
4.  BEATLES Guitar Tabs
5.  BLINK 182 Guitar Tabs
6.  BOB DYLAN Guitar Tabs
7.  BOB MARLEY Guitar Tabs
8.  BUSH Guitar Tabs
9.  COLDPLAY Guitar Tabs
10.  DAVE MATTHEWS Guitar Tabs
11.  ERIC CLAPTON Guitar Tabs
12.  GRATEFUL Dead Guitar Tabs
13.  GREEN DAY Guitar Tabs
14.  IRON MAIDEN Guitar Tabs
15.  JACK JOHNSON Guitar Tabs
16.  JIMI HENDRIX Guitar Tabs
17.  JOHN MAYER Guitar Tabs
18.  JOHNNY CASH Guitar Tabs
19.  LED ZEPPELIN Guitar Tabs
20.  LIMP BIZKIT Guitar Tabs
21.  METALLICA Guitar Tabs
22.  NEIL YOUNG Guitar Tabs
23.  NIRVANA Guitar Tabs
24.  PEARL JAM Guitar Tabs
25.  PINK FLOYD Guitar Tabs
26.  RADIOHEAD Guitar Tabs
27  RED HOT CHILI PEPPERS Guitar Tabs
28  ROLLING STONES Guitar Tabs
29  STONE TEMPLE PILOTS Guitar Tabs
30  U2 Guitar Tabs
31.  VAN HALEN Guitar Tabs
32.  WEEZER Guitar Tabs