Guitar Resources


Going Away To College (2) (By BLINK 182)
 
Date: Sat, 8 Sep 2001 09:54:55 -0400
From: "Effigy" (esper69@hotmail.com)
From: "Will" <vector2uk@hotmail.com> (by way of cathal woods)
Subject: b/blink_182/going_away_to_college.tab

Song: Going Away To College
Album: Enema of the State, Track 4
Artist: Blink 182
Originally transcribed by Effigy - esper69@hotmail.com
Corrected by Resiak - vector2uk@hotmail.com

I decided to correct this TAB. Effigy's original is very good, but I found
a few niggling errors... I've corrected:

* The Intro. It's got more than just powerchords.
* One note in Riff A and B.
* The start and end of the Chorus.

Intro: Rhy. Fig. 1   w/light distortion and low speed/depth phasing

Note: I'm not quite sure of the rhythm when changing between chords. Just
play what sounds right. You can get away without using any distortion at
this point, it sounds better with just the phasing in my opinion.

  B          Bsus2
e-------------------------|------------------------|
B-4-4--4-4-4-2--2-2--2-2-2|4-4--4-4-4-2--2-2--2-2-2|
G-4-4--4-4-4-4--4-4--4-4-4|4-4--4-4-4-4--4-4--4-4-4|
D-4-4--4-4-4-4--4-4--4-4-4|4-4--4-4-4-4--4-4--4-4-4|
A-2-2--2-2-2-2--2-2--2-2-2|2-2--2-2-2-2--2-2--2-2-2|
E-------------------------|------------------------|

  Emaj7      E6
e-------------------------|------------------------|
B-4-4--4-4-4-2--2-2--2-2-2|4-4--4-4-4-2--2-2--2-2-2|
G-4-4--4-4-4-4--4-4--4-4-4|4-4--4-4-4-4--4-4--4-4-4|
D-2-2--2-2-2-2--2-2--2-2-2|2-2--2-2-2-2--2-2--2-2-2|
A-------------------------|------------------------|
E-------------------------|------------------------|



Riff A:   w/heavy dist

    B                       Emaj7       F#
e-|--------------------------------------------------|--
B-|--------------------------------------------------|--
G-|o----------8-----------8-----------8-------------o|--
D-|o----9-----------9-----------9-----------11----11o|9-
A-|-------------------------7-7---7-7---9-9---9-9----|9-
E-|-7-7---7-7---7-7---7-7----------------------------|7-


Verse: Rhy. Fig. 2   w/heavy dist
  B         E       F#
e----------------------------------
B----------------------------------
G-----------9-9-9-9-11-11-11-11----
D-9--9-9-9--9-9-9-9-11-11-11-11----
A-9--9-9-9--7-7-7-7--9--9--9--9----
E-7--7-7-7-------------------------

Chorus: Rhy. Fig. 3   w/heavy dist
   G#m(from bass)    E               B               F#*                 x4
e---------------------------------------------------------------------
B---------------------------------------------------------------------
G--8-8-8-8-8-8-8-8-8/9-9-9-9-9-9-9-9-4-4-4-4-4-4-4-4------------------
D--------------------9-9-9-9-9-9-9-9-4-4-4-4-4-4-4-4-4-4-4-4-4-4-4-4--
A--6-6-6-6-6-6-6-6-6/7-7-7-7-7-7-7-7-2-2-2-2-2-2-2-2-4-4-4-4-4-4-4-4--
E----------------------------------------------------2-2-2-2-2-2-2-2--

F# IS the correct chord. I removed the original alternative voicing of the
last F# because I thought it sounded dumb.

Riff B:   w/heavy dist
e--------------------------------------------------
B--------------------------------------------------
G------8-----8-----8-----8-----8-----8-----9-------
D------------------------------------------------9-
A--------------------------7-7---7-7---9-9---9-9---
E--7-7---7-7---7-7---7-7---------------------------

Note: Mute all the notes on the A and E strings.


Here's how it all comes together:
Rhy Fig. 1x2
Riff A
Rhy. Fig. 2 x2
Riff A
Rhy. Fig. 2 x2
Rhy. Fig. 3
Riff A
Riff B x2
Rhy. Fig. 2 x2
Rhy. Fig. 3
Rhy. Fig. 1 x2
Rhy. Fig. 3
Guitar Tabs FROM THE TOP 60 ARTISTS
1.  AC/DC Guitar Tabs
2.  AEROSMITH Guitar Tabs
3.  ALANIS MORISSETTE Guitar Tabs
4.  BEATLES Guitar Tabs
5.  BLINK 182 Guitar Tabs
6.  BOB DYLAN Guitar Tabs
7.  BOB MARLEY Guitar Tabs
8.  BUSH Guitar Tabs
9.  COLDPLAY Guitar Tabs
10.  DAVE MATTHEWS Guitar Tabs
11.  ERIC CLAPTON Guitar Tabs
12.  GRATEFUL Dead Guitar Tabs
13.  GREEN DAY Guitar Tabs
14.  IRON MAIDEN Guitar Tabs
15.  JACK JOHNSON Guitar Tabs
16.  JIMI HENDRIX Guitar Tabs
17.  JOHN MAYER Guitar Tabs
18.  JOHNNY CASH Guitar Tabs
19.  LED ZEPPELIN Guitar Tabs
20.  LIMP BIZKIT Guitar Tabs
21.  METALLICA Guitar Tabs
22.  NEIL YOUNG Guitar Tabs
23.  NIRVANA Guitar Tabs
24.  PEARL JAM Guitar Tabs
25.  PINK FLOYD Guitar Tabs
26.  RADIOHEAD Guitar Tabs
27  RED HOT CHILI PEPPERS Guitar Tabs
28  ROLLING STONES Guitar Tabs
29  STONE TEMPLE PILOTS Guitar Tabs
30  U2 Guitar Tabs
31.  VAN HALEN Guitar Tabs
32.  WEEZER Guitar Tabs