Guitar Resources


Good Times (By BLINK 182)
 
-------------------------------------------------------------------------------
                               GOOD TIMES - Blink-182
-------------------------------------------------------------------------------

Transcribed by: Tristan Gruener
Email: Circa6000@aol.com

here is the tab for good times by blink182, most of you probably have never
hered it because i don't think its on an album of theres.

part 1 - play exactly shown, when done play really fast once
D|----------------------------------4-4-|
A|-7-7------9-9------2-2------------2-2-|
E|-5-5------7-7------0-0----------------|
good times,good times,good times,    oh baby, good times

part 2 - this riff is always played once before it goes into part 3
G|-----------------------------44444444-|
D|-4444444-4----------------------------|
A|-2222222-2-44444444-22222222----------|
E|-----------22222222-00000000----------|

part 3 - play this 5 times------------then play this once
D|-4444444-4--------------|-------4-|
A|-2222222-2-44444444-----|-22222-2-|
E|-----------22222222-----|-00000---|

-------------------------------------------------------------------------------

Guitar Tabs FROM THE TOP 60 ARTISTS
1.  AC/DC Guitar Tabs
2.  AEROSMITH Guitar Tabs
3.  ALANIS MORISSETTE Guitar Tabs
4.  BEATLES Guitar Tabs
5.  BLINK 182 Guitar Tabs
6.  BOB DYLAN Guitar Tabs
7.  BOB MARLEY Guitar Tabs
8.  BUSH Guitar Tabs
9.  COLDPLAY Guitar Tabs
10.  DAVE MATTHEWS Guitar Tabs
11.  ERIC CLAPTON Guitar Tabs
12.  GRATEFUL Dead Guitar Tabs
13.  GREEN DAY Guitar Tabs
14.  IRON MAIDEN Guitar Tabs
15.  JACK JOHNSON Guitar Tabs
16.  JIMI HENDRIX Guitar Tabs
17.  JOHN MAYER Guitar Tabs
18.  JOHNNY CASH Guitar Tabs
19.  LED ZEPPELIN Guitar Tabs
20.  LIMP BIZKIT Guitar Tabs
21.  METALLICA Guitar Tabs
22.  NEIL YOUNG Guitar Tabs
23.  NIRVANA Guitar Tabs
24.  PEARL JAM Guitar Tabs
25.  PINK FLOYD Guitar Tabs
26.  RADIOHEAD Guitar Tabs
27  RED HOT CHILI PEPPERS Guitar Tabs
28  ROLLING STONES Guitar Tabs
29  STONE TEMPLE PILOTS Guitar Tabs
30  U2 Guitar Tabs
31.  VAN HALEN Guitar Tabs
32.  WEEZER Guitar Tabs