Guitar Resources


Happy Holidays You Bastard (2) (By BLINK 182)
 
----------------------------------------------------------------------
BLINK 182 - HAPPY HOLIDAYS, YOU BASTARD
----------------------------------------------------------------------
  tabbed by vivien.g 
  If is there any mistakes mail me on takeoff_182@hotmail.com
----------------------------------------------------------------------


CHORD CHART:
	E	F#	B	G#	
E|--------------------------------------------------------------------
B|--------------------------------------------------------------------
G|----------------------4---------------------------------------------
D|------2-------4-------4-------6-------------------------------------
A|------2-------4-------2-------6-------------------------------------
E|------0-------2---------------4-------------------------------------




Verse:
                  B                         F#
	It's Xmas Eve and I've only wrapped two fuckin' presents
                  B                         F#
	It's Xmas Eve and I've only wrapped two fuckin' presents
              G#
	And I hate, hate, hate your guts
          E
	I hate, hate, hate your guts
            B          F#            E
	And I'll never talk to you again


Chorus:
                    F#
	Unless your Dad will suck me off
        B          F#            E
	I'll never talk to you again.

	Unless your mom will touch my cock
        B          F#            E
	I'll never talk to you again.

	Ejaculate into a sock
        B          F#            E
	I'll never talk to you again
                   F#            B
	I'll never talk to you again


Verse:
                   B                           F#
	It's Labor Day and my grandpa just ate seven fuckin' hotdogs
                   B                           F#
	It's Labor Day and my grandpa just ate seven fuckin' hotdogs
               G#
	And he shit, shit, shit his pants
             E
	He's always fuckin' shitin his pants
            B          F#            E
	And I'll never talk to you again


-- Chorus --
Guitar Tabs FROM THE TOP 60 ARTISTS
1.  AC/DC Guitar Tabs
2.  AEROSMITH Guitar Tabs
3.  ALANIS MORISSETTE Guitar Tabs
4.  BEATLES Guitar Tabs
5.  BLINK 182 Guitar Tabs
6.  BOB DYLAN Guitar Tabs
7.  BOB MARLEY Guitar Tabs
8.  BUSH Guitar Tabs
9.  COLDPLAY Guitar Tabs
10.  DAVE MATTHEWS Guitar Tabs
11.  ERIC CLAPTON Guitar Tabs
12.  GRATEFUL Dead Guitar Tabs
13.  GREEN DAY Guitar Tabs
14.  IRON MAIDEN Guitar Tabs
15.  JACK JOHNSON Guitar Tabs
16.  JIMI HENDRIX Guitar Tabs
17.  JOHN MAYER Guitar Tabs
18.  JOHNNY CASH Guitar Tabs
19.  LED ZEPPELIN Guitar Tabs
20.  LIMP BIZKIT Guitar Tabs
21.  METALLICA Guitar Tabs
22.  NEIL YOUNG Guitar Tabs
23.  NIRVANA Guitar Tabs
24.  PEARL JAM Guitar Tabs
25.  PINK FLOYD Guitar Tabs
26.  RADIOHEAD Guitar Tabs
27  RED HOT CHILI PEPPERS Guitar Tabs
28  ROLLING STONES Guitar Tabs
29  STONE TEMPLE PILOTS Guitar Tabs
30  U2 Guitar Tabs
31.  VAN HALEN Guitar Tabs
32.  WEEZER Guitar Tabs