Guitar Resources


Online Songs (2) (By BLINK 182)
 
----------------------------------------------------------------------
BLINK 182 - ONLINE SONGS 
----------------------------------------------------------------------
   tABBED BY Vivien-g  
   If is there any mistakes mail to me on takeoff_182@hotmail.com
----------------------------------------------------------------------


CHORD CHART:
	E	F#	A	D	Eii
E|--------------------------------------------------------------------
B|--------------------------------------------------------------------
G|------------------------------7-------9-----------------------------
D|------2-------4-------7-------7-------9-----------------------------
A|------2-------4-------7-------5-------7-----------------------------
E|------0-------2-------5---------------------------------------------

~ = let ring
x = palm mute



	Josie

	You're my source of most frustration

	Forget when

	I don't meet expectations


Riff 1 (Clean):
E|--------------------------------------------------------------------
B|--------------------------------------------------------------------
G|--------------------------------------------------------------------
D|-----2------0-0-0------2------0-0-0------2------0-0-0------2--------
A|-0-4---4--0--------0-4---4--0--------0--4--4--0--------0-4---4---2--
E|--------------------------------------------------------------------
	Everything you wished came true
	In the end we all blamed you
	Even though, as they all know,
	You weren't the only one
				[two, three, four...]


Riff 2:
E|--------------------------------------------------------------------
B|--------------------------------------------------------------------
G|--------------------------------------------------------------------
D|-------2------0---0-0--------2------0---0-0--------2------0---0-0---
A|-0-4-0---4--0---0------0-4-0---4--0---0------0-4-0---4--0---0-------
E|--------------------------------------------------------------------

E|--------------------------------------------------------------------
B|--------------------------------------------------------------------
G|-----------------2222-----------------------------------------------
D|-------2------------------------------------------------------------
A|-0-4-0---4---0------------------------------------------------------
E|--------------------------------------------------------------------


Verse:
        D~
	Why do you still keep it around

	When you know it brings me down,

	I'm hating everything

	And I know that you dated other guys

	But I got to wonder why

	You'd leave it out for me
                                 [Yeah !]


-- Riff 2 --


Verse:
	D~
	Why am I still hanging around

	When I know it brings me down,

	I'm hating everything

	And you are getting rides home in his car

	You're making out in his front yard

	I'm hating everything


-- Pick scratch --


Chorus:
                       D
	Please don't remind me
                        A
	Put your past behing me
                                 Eii
	It shines so bright it blinds me
                             D
	I wish that it would end
                 D
	And I am not fine
                             A
	Last night I saw you online
                                 Eii
	Your screen name used to be mine
                                  D
	Why can't we just pretend


Verse:
     D~
	And if we have another day

	I've got so much left to say

	I'd tell you everything

	And I'll laught when I think about the past

	When I see you after class

	You're hating everything


-- Pick scratch --


-- Chorus -- X 2


Bridge:
	And she said,
	F#         D          A          E
	na na na nana na na nana na na nana
				["I just forgot you were there"]

	F#         D          A          E
	na na na nana na na nana na na nana
				["I just forgot you were there"]

	F#         D          A          E
	na na na nana na na nana na na nana
				["I just forgot you were there"]

	F#         D          A          E
	na na na nana na na nana na na nana
				["I just forgot you were there"]


-- Chorus -- X2

Outro:
	And she said,
	F#	      D~
	na na na nana
Guitar Tabs FROM THE TOP 60 ARTISTS
1.  AC/DC Guitar Tabs
2.  AEROSMITH Guitar Tabs
3.  ALANIS MORISSETTE Guitar Tabs
4.  BEATLES Guitar Tabs
5.  BLINK 182 Guitar Tabs
6.  BOB DYLAN Guitar Tabs
7.  BOB MARLEY Guitar Tabs
8.  BUSH Guitar Tabs
9.  COLDPLAY Guitar Tabs
10.  DAVE MATTHEWS Guitar Tabs
11.  ERIC CLAPTON Guitar Tabs
12.  GRATEFUL Dead Guitar Tabs
13.  GREEN DAY Guitar Tabs
14.  IRON MAIDEN Guitar Tabs
15.  JACK JOHNSON Guitar Tabs
16.  JIMI HENDRIX Guitar Tabs
17.  JOHN MAYER Guitar Tabs
18.  JOHNNY CASH Guitar Tabs
19.  LED ZEPPELIN Guitar Tabs
20.  LIMP BIZKIT Guitar Tabs
21.  METALLICA Guitar Tabs
22.  NEIL YOUNG Guitar Tabs
23.  NIRVANA Guitar Tabs
24.  PEARL JAM Guitar Tabs
25.  PINK FLOYD Guitar Tabs
26.  RADIOHEAD Guitar Tabs
27  RED HOT CHILI PEPPERS Guitar Tabs
28  ROLLING STONES Guitar Tabs
29  STONE TEMPLE PILOTS Guitar Tabs
30  U2 Guitar Tabs
31.  VAN HALEN Guitar Tabs
32.  WEEZER Guitar Tabs