Guitar Resources


Party Song (By BLINK 182)
 
-------------------------------------------------------------------------------
                              PARTY SONG - Blink-182
-------------------------------------------------------------------------------

By:Greg T
email:moomoocowblink182kid@punkhardcore.net

This is from a tab book that tells how it was played when they recoded. 

play 3 3/4 times 
|------------------|------------------|------------------|-----------------| 
|------------------|------------------|------------------|-----------------| 
|------------------|------------------|------------------|-----------------| 
|------------------|------------------|------------------|-----------------|  
|------------------|-7--7--7--7--7--7-|-4--4--4--4--4--4-|-7--7--7--7--7--7| 
|-7--7--7--7--7--7-|------------------|------------------|-----------------| 
  pm----------------------------------------------------------------------- 
(do you want to come to a party this things at a frat house but people are cool 
 there Reluctant he followed but i never dreamed there would be someone who would 
 catch my attention I wasnt searching for love  or affection So i paid my three  
and the girls got in for free shinned the beer for tequila and) 

|--------------------|--------------------|---------------------| 
|--------------------|--------------------|---------------------| 
|--------------------|--------------------|---------------------| 
|--------------------|--------------------|---------------------| 
|-7--7---7--9--9---9-|--------------------|---------------------| 
|--------------------|-7--7---7--7--7---7-|-7------------2.6----| 
  pm-----------------------------------------          harmonic 
(we headed into the party.........                        And) 

|------------------|------------------|------------------|-----------------| 
|------------------|------------------|------------------|-----------------| 
|------------------|-9--9--9--9--9--9-|-6--6--6--6--6--6-|-9--9--9--9--9--9| 
|-9--9--9--9--9--9-|-9--9--9--9--9--9-|-6--6--6--6--6--6-|-9--9--9--9--9--9| 
|-9--9--9--9--9--9-|-7--7--7--7--7--7-|-4--4--4--4--4--4-|-7--7--7--7--7--7| 
|-7--7--7--7--7--7-|------------------|------------------|-----------------| 
 (then in the backyard some terrible ska band someone in the background was  
doing a keg stand this place is so lame all these girls look the same all  
these guys have no game i wish i would have stayed home in my bed back at  
home watching TV alone where id put on some porn or have sex on the phone,  
far from people I hate down from anywhere state trying to)   

|------------------|-0--0--0-------------|------------------|--------------| 
|------------------|-0--0--0-------------|------------------|--------------| 
|-6--6--6--6--6--6-|-9--9--9--11--11--11-|------------------|--------------| 
|-6--6--6--6--6--6-|-9--9--9--11--11--11-|-9--9--9--9--9--9-|--9-----------| 
|-4--4--4--4--4--4-|-7--7--7---9---9---9-|-9--9--9--9--9--9-|--9-----------| 
|------------------|---------------------|-7--7--7--7--7--7-|--7-----------| 
 (Intoxicate girls to give them head after a party) 

|------------------|------------------|-------------------|----------------| 
|------------------|------------------|-------------------|----------------| 
|------------------|------------------|-------------------|----------------| 
|---4--------------|---2--------p1----|-------------------|-2----------p1--| 
|------------------|------------------|--2----------------|----------------| 
|------------------|------------------|-------------------|----------------| 
(and then i saw her standing there with green eyes and long blond) 

|------------------|------------------|-------------------|----------------| 
|------------------|------------------|-------------------|----------------| 
|------------------|------------------|-------------------|----------------| 
|------------------|--2---------p1----|-------------------|----------------| 
|---2--------------|------------------|--2----------------|-2-----------h4-| 
|------------------|------------------|-------------------|----------------| 
(hair she wasnt wearing underwear at least i pray that she 
                                                                               
|------------------|------------------|------------------|-----------------| 
|------------------|------------------|------------------|-----------------| 
|------------------|------------------|------------------|-----------------| 
|------------------|------------------|------------------|-----------------| 
|-2--2--2--2--2--2-|-4--4--4--4--4--4-|-2--2--2--2--2--2-|-4--4--4--4--4--4| 
|------------------|------------------|------------------|-----------------| 
 PM------------------------------------------------------------------------ 
 (might be the one maybe wed have some fun maybe) 

|------------------|------------------|------------------|-----------------| 
|------------------|------------------|------------------|-----------------| 
|------------------|------------------|------------------|-----------------| 
|------------------|------------------|------------------|-----------------| 
|-2--2--2--2--2--2-|-4--4--4--4--4--4-|-2--2--2--2--2--2-|-4---------------| 
|------------------|------------------|------------------|-----------------| 
  PM--------------------------------------------------------      
(wed watch the sun rise but that night i learned) 

play 3 times 
|------------------|------------------|------------------|-----------------| 
|------------------|------------------|------------------|-----------------| 
|------------------|-9--9--9--9--9--9-|-6--6--6--6--6--6-|-9--9--9--9--9--9| 
|-9--9--9--9--9--9-|-9--9--9--9--9--9-|-6--6--6--6--6--6-|-9--9--9--9--9--9| 
|-9--9--9--9--9--9-|-7--7--7--7--7--7-|-4--4--4--4--4--4-|-7--7--7--7--7--7| 
|-7--7--7--7--7--7-|------------------|------------------|-----------------| 
(some girls try to hard...........)   

|------------------|------------------|------------------|-----------------| 
|------------------|------------------|------------------|-----------------| 
|------------------|-9--9--9--9--9--9-|-6--6--6--6--6--6-|-9--9--9--9--9--9| 
|-9--9--9--9--9--9-|-9--9--9--9--9--9-|-6--6--6--6--6--6-|-9--9--9--9--9--9| 
|-9--9--9--9--9--9-|-7--7--7--7--7--7-|-4--4--4--4--4--4-|-7--7--7--7--7--7| 
|-7--7--7--7--7--7-|------------------|------------------|-----------------| 
 (I couldnt belive the what this lady was saying the names she was dropping
the games she was playing she dated this guy who now rides for black flys how
shes down with the wise well constructed now i d rather go dateless then stay
here and hate this her volume of make up her fake tits were tastless so i said
id call her but never would bother un) 

|------------------|-0--0--0-------------|------------------|--------------| 
|------------------|-0--0--0-------------|------------------|--------------| 
|-6--6--6--6--6--6-|-9--9--9--11--11--11-|------------------|--------------| 
|-6--6--6--6--6--6-|-9--9--9--11--11--11-|-9--9--9--9--9--9-|--9-----------| 
|-4--4--4--4--4--4-|-7--7--7---9---9---9-|-9--9--9--9--9--9-|--9-----------| 
|------------------|---------------------|-7--7--7--7--7--7-|--7-----------| 
 (Till i got turned down by a girl at a party) 

|------------------|------------------|-------------------|----------------| 
|------------------|------------------|-------------------|----------------| 
|------------------|------------------|-------------------|----------------| 
|---4--------------|---2--------p1----|-------------------|-2----------p1--| 
|------------------|------------------|--2----------------|----------------| 
|------------------|------------------|-------------------|----------------| 
(so when you see her standing there with green eyes and long blond) 

|------------------|------------------|-------------------|----------------| 
|------------------|------------------|-------------------|----------------| 
|------------------|------------------|-------------------|----------------| 
|------------------|--2---------p1----|-------------------|----------------| 
|---2--------------|------------------|--2----------------|-2-----------h4-| 
|------------------|------------------|-------------------|----------------| 
(hair she wont be  wearing underwear and youll discover This) 
                                                                               
|------------------|------------------|------------------|-----------------| 
|------------------|------------------|------------------|-----------------| 
|------------------|------------------|------------------|-----------------| 
|------------------|------------------|------------------|-----------------| 
|-2--2--2--2--2--2-|-4--4--4--4--4--4-|-2--2--2--2--2--2-|-4--4--4--4--4--4| 
|------------------|------------------|------------------|-----------------| 
 PM------------------------------------------------------------------------ 
 (girls not the one shell never be fun you should) 

|------------------|------------------|------------------|-----------------| 
|------------------|------------------|------------------|-----------------| 
|------------------|------------------|------------------|-----------------| 
|------------------|------------------|------------------|-----------------| 
|-2--2--2--2--2--2-|-4--4--4--4--4--4-|-2--2--2--2--2--2-|-4---------------| 
|------------------|------------------|------------------|-----------------| 
  PM--------------------------------------------------------      
(just turn and run because youll find out) 

play 3 times 
|------------------|------------------|------------------|-----------------| 
|------------------|------------------|------------------|-----------------| 
|------------------|-9--9--9--9--9--9-|-6--6--6--6--6--6-|-9--9--9--9--9--9| 
|-9--9--9--9--9--9-|-9--9--9--9--9--9-|-6--6--6--6--6--6-|-9--9--9--9--9--9| 
|-9--9--9--9--9--9-|-7--7--7--7--7--7-|-4--4--4--4--4--4-|-7--7--7--7--7--7| 
|-7--7--7--7--7--7-|------------------|------------------|-----------------| 
(some girls try to hard...........)   

|------------------|------------------|------------------|--------|--------| 
|------------------|------------------|------------------|--------|--------| 
|------------------|------------------|------------------|--------|--------| 
|---2------1-------|------------------|-2------1---------|--------|--------| 
|----------------4-|--4-------------4-|----------------4-|-2------|--------| 
|------------------|------------------|------------------|--------|--------| 

-------------------------------------------------------------------------------
Guitar Tabs FROM THE TOP 60 ARTISTS
1.  AC/DC Guitar Tabs
2.  AEROSMITH Guitar Tabs
3.  ALANIS MORISSETTE Guitar Tabs
4.  BEATLES Guitar Tabs
5.  BLINK 182 Guitar Tabs
6.  BOB DYLAN Guitar Tabs
7.  BOB MARLEY Guitar Tabs
8.  BUSH Guitar Tabs
9.  COLDPLAY Guitar Tabs
10.  DAVE MATTHEWS Guitar Tabs
11.  ERIC CLAPTON Guitar Tabs
12.  GRATEFUL Dead Guitar Tabs
13.  GREEN DAY Guitar Tabs
14.  IRON MAIDEN Guitar Tabs
15.  JACK JOHNSON Guitar Tabs
16.  JIMI HENDRIX Guitar Tabs
17.  JOHN MAYER Guitar Tabs
18.  JOHNNY CASH Guitar Tabs
19.  LED ZEPPELIN Guitar Tabs
20.  LIMP BIZKIT Guitar Tabs
21.  METALLICA Guitar Tabs
22.  NEIL YOUNG Guitar Tabs
23.  NIRVANA Guitar Tabs
24.  PEARL JAM Guitar Tabs
25.  PINK FLOYD Guitar Tabs
26.  RADIOHEAD Guitar Tabs
27  RED HOT CHILI PEPPERS Guitar Tabs
28  ROLLING STONES Guitar Tabs
29  STONE TEMPLE PILOTS Guitar Tabs
30  U2 Guitar Tabs
31.  VAN HALEN Guitar Tabs
32.  WEEZER Guitar Tabs