Guitar Resources


Roller Coaster (By BLINK 182)
 
----------------------------------------------------------------------
BLINK 182 - ROLLER COASTER
----------------------------------------------------------------------
   Tabbed by vivien.g  
   If is there any mistakes mail to me on takeoff_182@hotmail.com
----------------------------------------------------------------------


CHORD CHART:
	B	A	D
E|--------------------------------------------------------------------
B|--------------------------------------------------------------------
G|------4---------------7---------------------------------------------
D|------4-------7-------7---------------------------------------------
A|------2-------7-------5---------------------------------------------
E|--------------5-----------------------------------------------------

~ = let ring
x = palm mute



Riff 1:
E|--------------------------------------------------------------------
B|-2---2-3-2---------2---2-3-2----------------------------------------
G|---2-------2---2-----2-------2---2----------------------------------
D|-------------2-----------------2------------------------------------
A|--------------------------------------------------------------------
E|--------------------------------------------------------------------


Riff 2:
E|--------------------------------------------------------------------
B|--------------------------------------------------------------------
G|--------------------------------------------------------------------
D|---7---7---7---7---7---7---7---7---7---7---7---7----7---7---7---7---
A|-00--00--00--00--00--00--00--00--00--00--00--00---55--55--55--55----
E|--------------------------------------------------------------------

E|--------------------------------------------------------------------
B|--------------------------------------------------------------------
G|--------------------------------------------------------------------
D|---7---7----7---7----7---7---7---7---7---7---7---7----7---7---7---7-
A|----------55--55---00--00--00--00--00--00--00--00---55--55--55--55--
E|-77--77-------------------------------------------------------------

E|--------------------------------------------------------------------
B|--------------------------------------------------------------------
G|--------------------------------------------------------------------
D|---7---7--0~~~~-----------------------------------------------------
A|--------------------------------------------------------------------
E|-77--77-------------------------------------------------------------
	Breathing deeply
	Walking backwards
	Finding strength to call and ask her
	Roller coaster, favorite ride
	Let me kiss you one last time


Riff 3: X 2
E|--------------------------------------------------------------------
B|--------------------------------------------------------------------
G|--------------------------------------------------------------------
D|-------0---------------0-----------0---0---------------0------------
A|-4-0-4---4-0-0-0-4-0-4---4-0-0-0-4---4---4-0-0-2-4-0-4---4-0-0-0----
E|--------------------------------------------------------------------


Verse:
      A               D
	Leave me standing here
      B              D
	Act like I'm not around
            A                    D
	The coast will probably never clear
      B              D
	Can I please go home now ?


Bridge:
           A            D       B        D
	I had that dream about you again
                A            D
	Where I wait outside
                  B         D
	Until you let me in
                      A
	And there I stayed


-- Riff 3 -- X 4


Verse:
      A        D
	Lay beside me
      B            D
	And listen at the wall
               A       D
	We'll keep on lying
      B            D
	Until the summer comes


Bridge:
           A            D       B        D
	I had that dream about you again
                    A          D
	Where you drive my car
                     B            A
	Right off a fucking cliff


Chorus: X 2
E|--------------------------------------------------------------------
B|--------------------------------------------------------------------
G|--------------------------------------------------------------------
D|---7---7---7---7---7---7---7---7----7---7---7---7----7---7----7---7-
A|-00--00--00--00--00--00--00--00---55--55--55--55------------55--55--
E|---------------------------------------------------77--77-----------
	And now I'm breathing deeply
	Walking backwards
	Finding strength to call and ask her
	Roller coaster, favorite ride
                                   A~
	Let me kiss you one last time


-- Pick scratch --


Verse:
      A           D
	Make me promise
      B              D
	That I will never tell
      A          D
	All I remember is
      B               D
	The way your bedroom smelled


Bridge:
           A            D       B        D
	I had that dream about you again
                A            D
	Where I wait outside
                  B         D
	Until you let me in


Chorus:
      A
	And now I'm breathing deeply

	Walking backwards
      D                     B            D
	Finding strength to call and ask her
      A
	Roller coaster, favorite ride
      D                 B        D
	Let me kiss you one last time


Outro:
	-- Riff 1 -- X2
	goodnight, goodnight
Guitar Tabs FROM THE TOP 60 ARTISTS
1.  AC/DC Guitar Tabs
2.  AEROSMITH Guitar Tabs
3.  ALANIS MORISSETTE Guitar Tabs
4.  BEATLES Guitar Tabs
5.  BLINK 182 Guitar Tabs
6.  BOB DYLAN Guitar Tabs
7.  BOB MARLEY Guitar Tabs
8.  BUSH Guitar Tabs
9.  COLDPLAY Guitar Tabs
10.  DAVE MATTHEWS Guitar Tabs
11.  ERIC CLAPTON Guitar Tabs
12.  GRATEFUL Dead Guitar Tabs
13.  GREEN DAY Guitar Tabs
14.  IRON MAIDEN Guitar Tabs
15.  JACK JOHNSON Guitar Tabs
16.  JIMI HENDRIX Guitar Tabs
17.  JOHN MAYER Guitar Tabs
18.  JOHNNY CASH Guitar Tabs
19.  LED ZEPPELIN Guitar Tabs
20.  LIMP BIZKIT Guitar Tabs
21.  METALLICA Guitar Tabs
22.  NEIL YOUNG Guitar Tabs
23.  NIRVANA Guitar Tabs
24.  PEARL JAM Guitar Tabs
25.  PINK FLOYD Guitar Tabs
26.  RADIOHEAD Guitar Tabs
27  RED HOT CHILI PEPPERS Guitar Tabs
28  ROLLING STONES Guitar Tabs
29  STONE TEMPLE PILOTS Guitar Tabs
30  U2 Guitar Tabs
31.  VAN HALEN Guitar Tabs
32.  WEEZER Guitar Tabs