Guitar Resources


Secret Song 14 (By BLINK 182)
 
-------------------------------------------------------------------------------
                          SECRET SONG #14  - Blink 182
-------------------------------------------------------------------------------

By: Philip Kasindi

Guitar 1 intro riff (x3):
e|-----------------|
B|---0------0------|
G|-----2------2----|
D|-2------2--------|
A|-----------------|
E|-----------------|

Guitar 2 intro(x2) (comes in after intro riff has been played once):
e|-------------------------------------|
B|-------------------------------------|
G|-2-2-2-2-2-2-2-2---------7-7-7-7-----|
D|-2-2-2-2-2-2-2-2-2-2-2-2-7-7-7-7-----|
A|-0-0-0-0-0-0-0-0-2-2-2-2-5-5-5-5-----|
E|-----------------0-0-0-0-------------|

Verse 1:
A                    F#
I'm sick of always hearing all
      Eii               D
those sad songs on the radio.
A               F#
All day it is there to remind an
        Eii                    D
over-sensitive guy, that he's lost

in alonia.

Intro (x1)

Verse 2:
A                       F#
I hate our favorite restaraunt, our
           Eii              D
favorite movie, our favorite show.
A                 F#
We would stay up all through the night
          Eii
we would laugh and get high an never
  D
answer the phone.

Chorus:
A          E             F#               D
I can't forgive, can't forget, can't give in.
            A               E             F#
What went wrong 'cause you said this was right.
      D
You fucked up my life.

Intro (x1)

Verse 3:
A                    F#
I'm sick of always hearing sappy
Eii                 D
love songs on the radio.
A                         F#
This place, its fucking cursed in its
                Eii
plague and can never escape when
    D
my heart it explodes.

Chorus

Solo:
e|-----0---------------0---------------0---------------0------------|
B|-------------2---------------2---------------2---------------2----|
G|---2---2---2---2---2---2---2---2---2---2---2---2---2---2---2---2--|
D|---------------------------------0-------0-------0-------0--------|
A|-0-------0--------------------------------------------------------|
E|-----------------2-------2----------------------------------------|

e|-----0---------------0-------------------------------|
B|-------------2---------------2-------2-----2---------|
G|---2---2---2---2---2---2---2---2---2-----2-----2-2---|
D|---------------------------------0-----0-----0-------|
A|-0-------0-------2-------2---------------------------|
E|-----------------------------------------------------|

This is the clarinet part tabbed out on guitar:
e|------------------------------------------------|
B|------------------------------------------------|
G|---------------6-7-9-----------6----------------|
D|-7---6-7-9-7---------7---6-7-9-----7---9---7----|
A|-------------------------------------7----------|
E|------------------------------------------------|

Guitar part during clarinet:
e|---------------------------------|
B|---------------------------------|
G|-2-2-2-2-2-2-2-2-7-7-7-7-7-7-7-7-|
D|-2-2-2-2-2-2-2-2-7-7-7-7-7-7-7-7-|(x3)
A|-0-0-0-0-0-0-0-0-5-5-5-5-5-5-5-5-|
E|---------------------------------|

then play this once
e|-----------------------------------------------------------------|
B|-----------------------------------------------------------------|
G|-2-2-2-2-2-2-2-2-2-2-2-2-2-2-2-2-----------------7-7-7-7-7-7-7-7-|
D|-2-2-2-2-2-2-2-2-2-2-2-2-2-2-2-2-2-2-2-2-2-2-2-2-7-7-7-7-7-7-7-7-|
A|-0-0-0-0-0-0-0-0-0-0-0-0-0-0-0-0-2-2-2-2-2-2-2-2-5-5-5-5-5-5-5-5-|
E|---------------------------------0-0-0-0-0-0-0-0-----------------|

Outro (x4):
A                 E          D
I'm kicking out feircely of the world
A          E         D
around me. What went wrong.

Guitar 1 intro riff comes in on the third time the outro is reapeated.

ending:
A(let it ring)
I'm kicking.

This is a very sweet acoustic song and the whole album is very sweet so you 
should go out and but it!!!
If you have any questions or comments feel free to e-mail me at 
hash_pipe42@hotmail.com!

=========================================================================

Guitar Tabs FROM THE TOP 60 ARTISTS
1.  AC/DC Guitar Tabs
2.  AEROSMITH Guitar Tabs
3.  ALANIS MORISSETTE Guitar Tabs
4.  BEATLES Guitar Tabs
5.  BLINK 182 Guitar Tabs
6.  BOB DYLAN Guitar Tabs
7.  BOB MARLEY Guitar Tabs
8.  BUSH Guitar Tabs
9.  COLDPLAY Guitar Tabs
10.  DAVE MATTHEWS Guitar Tabs
11.  ERIC CLAPTON Guitar Tabs
12.  GRATEFUL Dead Guitar Tabs
13.  GREEN DAY Guitar Tabs
14.  IRON MAIDEN Guitar Tabs
15.  JACK JOHNSON Guitar Tabs
16.  JIMI HENDRIX Guitar Tabs
17.  JOHN MAYER Guitar Tabs
18.  JOHNNY CASH Guitar Tabs
19.  LED ZEPPELIN Guitar Tabs
20.  LIMP BIZKIT Guitar Tabs
21.  METALLICA Guitar Tabs
22.  NEIL YOUNG Guitar Tabs
23.  NIRVANA Guitar Tabs
24.  PEARL JAM Guitar Tabs
25.  PINK FLOYD Guitar Tabs
26.  RADIOHEAD Guitar Tabs
27  RED HOT CHILI PEPPERS Guitar Tabs
28  ROLLING STONES Guitar Tabs
29  STONE TEMPLE PILOTS Guitar Tabs
30  U2 Guitar Tabs
31.  VAN HALEN Guitar Tabs
32.  WEEZER Guitar Tabs