Guitar Resources


Shut Up (By BLINK 182)
 
-------------------------------------------------------------------------------
                                SHUT UP - Blink-182
-------------------------------------------------------------------------------

By: ul182@hotmail.com

chords used
   A    D   B   C#
e|-----------------------|
B|-----------------------|
G|------7-------6--------|
D|-7----7---9---6--------|
A|-7----5---9---4--------|
E|-5--------7------------|

Riff1 (x4)
|---------------------------------------------------------------------------|
|---------------------------------------------------------------------------|
|-----------------------9--------9---------9----------9---------------------|
|-(7-7-7-7-7-7-7-7)-7-7---7--7-7---7---------7----------7-------------------|
|---------------------------------------------------------------------------|
|-------------------------------------9-9-------10-10-----------------------|

A
Shut the fuck up, she said
I'm going fuckind deaf
You're always too loud
Everything's too loud
Now that all my friend's left
This place is fucking dead
I wanna move out
When can we move out
This shit has gotta stop
RIFF 1
I'll run away
riff1 (x2)

A
Get the fuck up, she said
Your life is meaningless
It's going nowhere
You're going nowhere
You're just a fuck up, she said
I'll live alone instead
She said "You don't care"
I know I don't care

CHORUS
D                     A
I'll never ask permission from you
D                     A
Fuck off, i'm not listening to you
B                D
I'm not coming home
            B                 D
I'm never going to come back home

A
I got too fucked up again
C#                      D
And passed out on the plane
            A
Tried to forget you
           C#   D
I can't forget you

A
No sleep on this flight
C#                     D
I'll think about the nights
           A
We had to get through
            C#    D
How did we get through?

CHORUS
Riff 2 (x6)  Start before "i think it's time that i should leave"
|--------------------------------------|
|--------------------------------------|
|-9-9-9-9-9-9-9-9-11-11-11-11-7-7-7-7--|
|--------------------------------------|
|-7-7-7-7-7-7-7-7-9--9--9--9--5-5-5-5--|
|--------------------------------------|

(Our you can hit A, C#, D along with it)
|---------------------------------------------------------------------------|
|---------------------------------------------------------------------------|
|-14-14-14-14-14-14-14-14-13-13-13-13-11-11-11-11-18(x8)-16(x4)-14(x4)------|
|---------------------------------------------------------------------------|
|---------------------------------------------------------------------------|
|---------------------------------------------------------------------------|

|---------------------------------------------------------------------------|
|---------------------------------------------------------------------------|
|-14-14-14-14-14-14-14-14-13-13-13-13-11-11-11-11-18(x8)-16(x4)-19(x4)------|
|---------------------------------------------------------------------------|
|---------------------------------------------------------------------------|
|---------------------------------------------------------------------------|

CHORUS

Riff1
I think it's time for me to leave, I'll run away
==============================================================================

Guitar Tabs FROM THE TOP 60 ARTISTS
1.  AC/DC Guitar Tabs
2.  AEROSMITH Guitar Tabs
3.  ALANIS MORISSETTE Guitar Tabs
4.  BEATLES Guitar Tabs
5.  BLINK 182 Guitar Tabs
6.  BOB DYLAN Guitar Tabs
7.  BOB MARLEY Guitar Tabs
8.  BUSH Guitar Tabs
9.  COLDPLAY Guitar Tabs
10.  DAVE MATTHEWS Guitar Tabs
11.  ERIC CLAPTON Guitar Tabs
12.  GRATEFUL Dead Guitar Tabs
13.  GREEN DAY Guitar Tabs
14.  IRON MAIDEN Guitar Tabs
15.  JACK JOHNSON Guitar Tabs
16.  JIMI HENDRIX Guitar Tabs
17.  JOHN MAYER Guitar Tabs
18.  JOHNNY CASH Guitar Tabs
19.  LED ZEPPELIN Guitar Tabs
20.  LIMP BIZKIT Guitar Tabs
21.  METALLICA Guitar Tabs
22.  NEIL YOUNG Guitar Tabs
23.  NIRVANA Guitar Tabs
24.  PEARL JAM Guitar Tabs
25.  PINK FLOYD Guitar Tabs
26.  RADIOHEAD Guitar Tabs
27  RED HOT CHILI PEPPERS Guitar Tabs
28  ROLLING STONES Guitar Tabs
29  STONE TEMPLE PILOTS Guitar Tabs
30  U2 Guitar Tabs
31.  VAN HALEN Guitar Tabs
32.  WEEZER Guitar Tabs