Guitar Resources


Stay Together For The Kids (6) (By BLINK 182)
 
Band: Blink 182
Song: Stay Together For The Kids
Album: Take Off Your Pants And Jacket
Tabbed by: Tsuyoshi Onda,  looking_for_blues_clues@hotmail.com 

INTRO (clean):

|----------------------------------------------------------------------------------------------------------------
|----------------------------------------------------------------------------------------------------------------
|----------------------------------------------------------------------------------------------------------------
|----0------7--0-----4--0---------0------7--0-----4--0-----------0-----4--0-----5--0---------2--2--4--5--4--2--0-  
|-5-----5---------5------------4-----4---------4---------------2-----2--------2------------0---------------------   (x2)
|---------------------------------------------------------------------------------------------------------------- 

VERSE (clean):

|----------------------------------------------------------------------------------------------------------------
|----------------------------------------------------------------------------------------------------------------
|---------7---------------------7---------------------7--------------------9--------------------6----------------
|---------7---------------------7---------------------7--------------------7--------------------7----------------
|--5--5-----5---(x4)------------------(x4)-----------------(x4)---0--0-----0--(x2)--0--0-----0----(x2)-----------   (x2)
|------------------------7--7------7-----------5--5-----5--------------------------------------------------------

CHORUS (distortion):

|---------------------------------------------
|---------------------------------------------
|---------------------------------------------
|-------5555555555555555444444444444444-------
|-------5555555555555555555555555555555-------   (x4)
|-------3333333333333333222222222222202-------

end on:

|-------------
|-------------
|-------------
|-------5-----
|-------5-----
|-------3-----

Preverse (clean):

|----------------------------------------------------------------------------------------------------------------|----------------------------------------------------------------------------------------------------------------
|----------------------------------------------------------------------------------------------------------------
|----0------7--0-----4--0---------0------7--0-----4--0-----------0-----4--0-----5--0---------2--2--4--5--4--2--0-  
|-5-----5---------5------------4-----4---------4---------------2-----2--------2------------0---------------------   (x2)
|---------------------------------------------------------------------------------------------------------------- 

VERSE (clean):

|----------------------------------------------------------------------------------------------------------------
|----------------------------------------------------------------------------------------------------------------
|---------7---------------------7---------------------7--------------------9--------------------6----------------
|---------7---------------------7---------------------7--------------------7--------------------7----------------
|--5--5-----5---(x4)------------------(x4)-----------------(x4)---0--0-----0--(x2)--0--0-----0--(x2)-------------   (x2)
|------------------------7--7------7-----------5--5-----5--------------------------------------------------------

CHORUS (distortion):

|---------------------------------------------
|---------------------------------------------
|---------------------------------------------
|-------5555555555555555444444444444444-------
|-------5555555555555555555555555555555-------   (x4)
|-------3333333333333333222222222222202-------

end on:

|-------------
|-------------
|-------------
|-------5-----
|-------5-----
|-------3-----

Bridge (clean):

|---------------------------------------------
|--------7------------------9-----------------
|--------7--------7---------9-----------------
|--------7--------7---------9-----------------
|-----------------5---------7-----------------   (x3)
|---------------------------------------------

|---------------------------------------------
|-------7------------------*------------------
|-------7---------7--------9------------------
|-------7---------7--------x------------------
|-----------------5--------7------------------   (x1)
|---------------------------------------------
*-Turn Distortion On		    
		
CHORUS (distortion):

|---------------------------------------------
|---------------------------------------------
|---------------------------------------------
|-------5555555555555555444444444444444-------
|-------5555555555555555555555555555555-------   (x10) slowly fading away
|-------3333333333333333222222222222202-------


LYRICS:

Its hard to wake up, when the shades have been pulled shut
This house is haunted, its so pathetic, it makes no sense at all
Im ripe with things to say, the words rot and fall away
A stupid poem could fix this home, I'd read it every day

So here's your holiday,
hope you enjoy it this time, you gave it all away
It was mine, so when your dead and gone,
will you remember this night, twenty years now lost,
it's not right.

The anger hurts my ears, been running strong for seven years
Rather then fix the problem, they never solve them, it makes no sense at all
I see them everyday, we get along so why can't they?
If this is what he wants, and its what she wants,then whys there so much pain?

So here's your holiday,
hope you enjoy it this time, you gave it all away.
It was mine,so when your dead and gone,
will you remember this night, twenty years now lost,
it's not right.

So here's your holiday,
hope you enjoy it this time, you gave it all away.
It was mine,so when your dead and gone,
will you remember this night, twenty years now lost,
it's not right
it's not right
it's not right
it's not right
Guitar Tabs FROM THE TOP 60 ARTISTS
1.  AC/DC Guitar Tabs
2.  AEROSMITH Guitar Tabs
3.  ALANIS MORISSETTE Guitar Tabs
4.  BEATLES Guitar Tabs
5.  BLINK 182 Guitar Tabs
6.  BOB DYLAN Guitar Tabs
7.  BOB MARLEY Guitar Tabs
8.  BUSH Guitar Tabs
9.  COLDPLAY Guitar Tabs
10.  DAVE MATTHEWS Guitar Tabs
11.  ERIC CLAPTON Guitar Tabs
12.  GRATEFUL Dead Guitar Tabs
13.  GREEN DAY Guitar Tabs
14.  IRON MAIDEN Guitar Tabs
15.  JACK JOHNSON Guitar Tabs
16.  JIMI HENDRIX Guitar Tabs
17.  JOHN MAYER Guitar Tabs
18.  JOHNNY CASH Guitar Tabs
19.  LED ZEPPELIN Guitar Tabs
20.  LIMP BIZKIT Guitar Tabs
21.  METALLICA Guitar Tabs
22.  NEIL YOUNG Guitar Tabs
23.  NIRVANA Guitar Tabs
24.  PEARL JAM Guitar Tabs
25.  PINK FLOYD Guitar Tabs
26.  RADIOHEAD Guitar Tabs
27  RED HOT CHILI PEPPERS Guitar Tabs
28  ROLLING STONES Guitar Tabs
29  STONE TEMPLE PILOTS Guitar Tabs
30  U2 Guitar Tabs
31.  VAN HALEN Guitar Tabs
32.  WEEZER Guitar Tabs